Lyrics started by: 1 |2 |3 |4 |5 |6 |7 |8 |9 |a |b |c |d |e |f |g |h |i |j |k |l |m |n |o |p |q |r |s |t |u |v |w |x |y |z
More then 1900 karaoke song in 29 filetypes. 1,1 TB for your own ON-LINE download. Pay by Card or PayPal!
 

Lyrics of a song 4 Skins - Chaos

>> LYRICS >> LYRICS 4 >> 4 Skins >>
Alba s touto skladbou: B.S.P.:The Best Of & Live in Retro Music Hall, Nijigen Complex, Drunk In The Daylight, Momentum, XXV [25th Anniversary Compilation Album], CHAOS, Pandemonium ~????~, Skold, Missing Link, Clockwork Skinhead,


intro/verse:
e|-------------------------------------------------------------------------|
B|-------------------------------------------------------------------------|
G|-------------------------------------------------------------------------|
D|---9-9-9-9-9-------------------------------------9-----------------------|
A|---7-7-7-7-7-9-9-9-9-9-9-9-7-7-7-7-7-7-7-7-7-7-9-7-----------------------|
E|-------------7-7-7-7-7-7-7-5-5-5-5-5-5-5-5-5-5-7-------------------------|

chorus:
e|-------------------------------------------------------------------------|
B|-------------------------------------------------------------------------|
G|-------------------------------------------------------------------------|
D|-------------------------------------------------------------------------|
A|---5-7-5-7-5-7-5-9-------------------------------------------------------|
E|---3-5-3-5-3-5-3-7-------------------------------------------------------|

riff:
e|-------------------------------------------------------------------------|
B|-------------------------------------------------------------------------|
G|---9---------------------------------------------------------------------|
D|-----9-11-9-7-7-9--------------------------------------------------------|
A|-------------------------------------------------------------------------|
E|-------------------------------------------------------------------------|


Karaoke songs from our production:

Campana sobre Campana audio, FullHD video ... od 70 CZK

Mama I'm coming home audio, FullHD video ... od 80 CZK

Honey, honey audio, video ... od 65 CZK

Bílé Vánoce audio, FullHD video ... od 70 CZK

0,00 CZK
(0,00 EUR)

Best karaoke tips:

Karaoke song Believe in Love - Scorpions, Published: 2009-08-05 13:01:21 Believe in Love MIDI, MP3, video ... 65,00 CZK

Karaoke song Downtown - Petula Clark, Published: 2009-08-26 12:31:59 Downtown MIDI, MP3, video ... 65,00 CZK

Karaoke song Word Of Mouth - Mike & The Mechanics, Published: 2010-01-22 12:05:23 Word Of Mouth MIDI, MP3, video ... 65,00 CZK

Karaoke song Is This The Way To Amarillo - Tony Christie feat Peter Kay, Published: 2010-03-03 10:40:08 Is This The Way To Amarillo MIDI, MP3, video ... 65,00 CZK

Karaoke song So Serious - ELO ( Electric Light Orchestra ), Published: 2012-02-22 09:15:30 So Serious MIDI, MP3, video ... 65,00 CZK

Karaoke song Breaking The Law - Judas Priest, Published: 2012-02-21 09:54:45 Breaking The Law MIDI, MP3, video ... 65,00 CZK

Karaoke song Mama I'm coming home - Ozzy Osbourne, Published: 2014-06-11 08:50:17 Mama I'm coming home MIDI, MP3, FullHD video ... 80,00 CZK

Karaoke song Lucky - Bernie Paul, Published: 2014-03-17 07:54:49 Lucky MIDI, MP3, FullHD video ... 75,00 CZK

TOPlist TOPlist
Přihlášení / registrace:
Přihlásit se přes Facebook
Login:
Heslo:
 
- nová registrace
- zapomenuté heslo

Payment Gateway for karaoke
Vytištěno ze serveru www.musicer.net