Lyrics started by: 1 |2 |3 |4 |5 |6 |7 |8 |9 |a |b |c |d |e |f |g |h |i |j |k |l |m |n |o |p |q |r |s |t |u |v |w |x |y |z
More then 1900 karaoke song in 29 filetypes. 1,1 TB for your own ON-LINE download. Pay by Card or PayPal!
 

Lyrics of a song 4 Skins - Clockwork Skinhead

>> LYRICS >> LYRICS 4 >> 4 Skins >>
Alba s touto skladbou: Clockwork Skinhead,


INTRO:
e:---------------------------------------------------------------------|
B:---------------------------------------------------------------------|
G:5---5--5--5--5--5--5------------------------5---5--5--5--5--5--5-----|
D:5---5--5--5--5--5--5--5---5--5--5--5--5--5--5---5--5--5--5--5--5--5--|
A:3---x--x--x--x--x--x--5---5--5--5--5--5--5--3---x--x--x--x--x--x--5--|
E:----------------------3---x--x--x--x--x--x------------------------3--|

e:|--------------------------------------------|
B:|--------------------------------------------|
G:|5---5--5--5--5--5--5------------------------|
D:|5---5--5--5--5--5--5--5---5--5--5--5--5--5--|
A:|3---3--3--3--3--3--3--5---5--5--5--5--5--5--|
E:|----------------------3---3--3--3--3--3--3--|

Play this 4 times

VERSE:
e:--------------------------------------------|
B:--------------------------------------------|
G:5---5--5--5--5--5--5------------------------|
D:5---5--5--5--5--5--5--5---5--5--5--5--5--5--|
A:3---3--3--3--3--3--3--5---5--5--5--5--5--5--|
E:----------------------3---3--3--3--3--3--3--|

Play this 3 times, then...

e:--------------------------------------------|
B:--------------------------------------------|
G:--------------------------------------------|
D:3---3--3--3--3--3--3--5---5--5--5--5--5--5--|
A:3---3--3--3--3--3--3--5---5--5--5--5--5--5--|
E:1---1--1--1--1--1--1--3---3--3--3--3--3--3--|

CHORUS:
e:---------------------|
B:---------------------|
G:3--------------------|
D:3----3----5-----3-5--|
A:1----3----5-----3-5--|
E:-----1----3-----1-3--|

BRIDGE:
e:---------------------|
B:---------------------|
G:3-3-------5----------|
D:3-3---3---5----------|
A:1-1---3---3----------|
E:------1--------------|

"SOLO":
e:------------------------------------|
B:------------------------------------|
G:7--------5--------3-----------------|
D:---------------------------5--------|
A:------------------------------------|
E:------------------------------------|

Play that two times, then....

e:------------------------------------|
B:---------------------------6--------|
G:7--------5--------3-----------------|
D:------------------------------------|
A:------------------------------------|
E:------------------------------------|


Karaoke songs from our production:

Ta skalická brána audio, FullHD video ... od 73 CZK

Amnesia audio, video ... od 65 CZK

Dojdu já k tobě frajárko (EV) audio, FullHD video ... od 73 CZK

It will rain audio, FullHD video ... od 75 CZK

0,00 CZK
(0,00 EUR)

Best karaoke tips:

Karaoke song Believe in Love - Scorpions, Published: 2009-08-05 13:01:21 Believe in Love MIDI, MP3, video ... 65,00 CZK

Karaoke song Downtown - Petula Clark, Published: 2009-08-26 12:31:59 Downtown MIDI, MP3, video ... 65,00 CZK

Karaoke song Word Of Mouth - Mike & The Mechanics, Published: 2010-01-22 12:05:23 Word Of Mouth MIDI, MP3, video ... 65,00 CZK

Karaoke song Is This The Way To Amarillo - Tony Christie feat Peter Kay, Published: 2010-03-03 10:40:08 Is This The Way To Amarillo MIDI, MP3, video ... 65,00 CZK

Karaoke song So Serious - ELO ( Electric Light Orchestra ), Published: 2012-02-22 09:15:30 So Serious MIDI, MP3, video ... 65,00 CZK

Karaoke song Breaking The Law - Judas Priest, Published: 2012-02-21 09:54:45 Breaking The Law MIDI, MP3, video ... 65,00 CZK

Karaoke song Mama I'm coming home - Ozzy Osbourne, Published: 2014-06-11 08:50:17 Mama I'm coming home MIDI, MP3, FullHD video ... 80,00 CZK

Karaoke song Lucky - Bernie Paul, Published: 2014-03-17 07:54:49 Lucky MIDI, MP3, FullHD video ... 75,00 CZK

TOPlist TOPlist
Přihlášení / registrace:
Přihlásit se přes Facebook
Login:
Heslo:
 
- nová registrace
- zapomenuté heslo

Payment Gateway for karaoke
Vytištěno ze serveru www.musicer.net