Lyrics started by: 1 |2 |3 |4 |5 |6 |7 |8 |9 |a |b |c |d |e |f |g |h |i |j |k |l |m |n |o |p |q |r |s |t |u |v |w |x |y |z
More then 1900 karaoke song in 29 filetypes. 1,1 TB for your own ON-LINE download. Pay by Card or PayPal!
 

Lyrics of a song Sunshine - Ghetto - Intro

>> LYRICS >> LYRICS s >> Sunshine >>
1st guitar

|--------------------------------------------------|
|--------------------------------------------------|
|--4-4-4-4-4---4-4-4-------4-4-4-4-4---4-4-4-------|
|--2-2-2-2-2---2-2-2-------2-2-2-2-2---2-2-2-------|
|--2-2-2-2-2---2-2-2-------2-2-2-2-2---2-2-2-------|
|--------------------------------------------------|


----------------------------------------------------------------

1st guitar

|--------------------------------------------------|
|--------------------------------------------------|
|--4-4-4-4-4---4-4-4-------4-4-4-4-4---4-4-4-------|
|--2-2-2-2-2---2-2-2-------2-2-2-2-2---2-2-2-------|
|--2-2-2-2-2---2-2-2-------2-2-2-2-2---2-2-2-------|
|--------------------------------------------------|


2nd guitar

|--------------------------------------------------|
|--------------------------------------------------|
|--3h9~~~~---5~~~~-4~~-----3h9~~~~---5~~~~-4~~-----|
|--------------------------------------------------|
|--------------------------------------------------|
|--------------------------------------------------|

----------------------------------------------------------------

1st guitar

|--------------------------------------------------| 2×
|--------------------------------------------------|
|--4-4-4-4-4---4-4-4-------4-4-4-4-4---4-4-4-------|
|--2-2-2-2-2---2-2-2-------2-2-2-2-2---2-2-2-------|
|--2-2-2-2-2---2-2-2-------2-2-2-2-2---2-2-2-------|
|--------------------------------------------------|


2nd guitar

|------------------------------------------------------| 2×
|------------------------------------------------------|
|--4-4-4-4-4---4-4-4h7-7-7-7-4-4-4-4-4---4-4-4v2-2-2-2-|
|------------------------------------------------------|
|------------------------------------------------------|
|------------------------------------------------------| 237d

Karaoke songs from our production:

Campana sobre Campana audio, video ... od 65 CZK

Love me Tender audio, video ... od 65 CZK

Hound Dog audio, video ... od 65 CZK

Poslední kovboj audio, FullHD video ... od 75 CZK

0,00 CZK
(0,00 EUR)

Best karaoke tips:

Karaoke song Everlasting love - Sandra, Published: 2008-02-25 09:09:22 Everlasting love MIDI, MP3, video ... 65,00 CZK

Karaoke song Neverending story - Limahl, Published: 2008-02-25 09:10:29 Neverending story MIDI, MP3, video ... 65,00 CZK

Karaoke song I´m The One And Only - Chesney Hawkes, Published: 2008-04-14 14:58:24 I´m The One And Only MIDI, MP3, video ... 65,00 CZK

Karaoke song Nothing´s Gonna Change My Love For You - Glen Medeiros, Published: 2008-05-10 12:18:19 Nothing´s Gonna Change My L... MIDI, MP3, video ... 65,00 CZK

Karaoke song Teardrops - Shakin´Stevens, Published: 2008-07-01 15:04:26 Teardrops MIDI, MP3, FullHD video ... 75,00 CZK

Karaoke song United - Judas Priest, Published: 2008-07-16 10:43:00 United MIDI, MP3, video ... 65,00 CZK

Karaoke song Painter Man - Boney M, Published: 2008-11-03 23:15:04 Painter Man MIDI, MP3, video ... 65,00 CZK

Karaoke song Turbo Lover - Judas Priest, Published: 2009-01-29 14:47:20 Turbo Lover MIDI, MP3, video ... 65,00 CZK

Karaoke song Lick It Up - Kiss, Published: 2009-02-03 21:21:58 Lick It Up MIDI, MP3, video ... 65,00 CZK

TOPlist TOPlist
Přihlášení / registrace:
Přihlásit se přes Facebook
Login:
Heslo:
 
- nová registrace
- zapomenuté heslo

Payment Gateway for karaoke
Vytištěno ze serveru www.musicer.net