Lyrics started by: 1 |2 |3 |4 |5 |6 |7 |8 |9 |a |b |c |d |e |f |g |h |i |j |k |l |m |n |o |p |q |r |s |t |u |v |w |x |y |z
More then 1900 karaoke song in 29 filetypes. 1,1 TB for your own ON-LINE download. Pay by Card or PayPal!
 

Lyrics of a song Petr Kolář - Vyznání (přesněji)

>> LYRICS >> LYRICS p >> Petr Kolář >>

{Sólo}
G#mi E C# F#
e |--------------------------------|------9--11----------|---------------|--------------------9--|
h |--12--12--11--9------9--11--12--|--12---------12--11--|--9--7--9^7^9--|--11--9--11--9--11-----|
G |-----------------11-------------|---------------------|---------------|-----------------------|
D |--------------------------------|---------------------|---------------|-----------------------|
A |--------------------------------|---------------------|------- 1f8b --------|-----------------------|
E |--------------------------------|---------------------|---------------|-----------------------|

{Rozklady akordů}
C#7/4 C#7 F#7/4 F#7
e |--------------------------|--------------------------|--------------------------|--------------------------|
h |--------------7-----------|--------------6-----------|--------------------------|--------------------------|
G |--------4--------4-----4--|--------4--------4-----4--|--------------4-----------|--------------3-----------|
D |-----6-----6--------6-----|-----6-----6--------6-----|--------4--------4-----4--|--------4--------4-----4--|
A |--4-----------------------|--4-----------------------|-----4-----4--------4-----|-----4-----4--------4-----|
E |--------------------------|--------------------------|--2-----------------------|--2-----------------------|


{Intro}
C#7/4, C#7, C#7/4, C#7

C#7/4 I když jsem chlap C#7bez vyznání,
C#7/4teď se vyznáC#7vám,
F#7/4léta jsem měl F#7klamná zdání,
F#7/4lásku že já F#7znám.
C#7/4Stačí jít se C#7někam napít,
C#7/4vždycky najdeš C#7stůl,
F#7/4kde je holka, F#7která ztratí
F#7/4s tebou noci F#7půl.

HPár let se dá tak prožít,
C#je to celkem fajn,
Eživot je jak velkej F#flám.

®: HNajednou ti dojde, že se chováš jak ten
G#miblázen (jako blázen, jako bloud)
a víš C#mijasně, že chceš víc,
než mít Eholku na měF#síc.
HPřed očima náhle zjeví se ti všechny
G#mitváře (tváře s adresou),
kde znáš C#mipostel a jen skříň,
jsi jen Ehostem mezi F#vším.

Je to láska nebo není,
začínáš se ptát,
nebe nezná vyvolených,
ty bys jím byl rád.
Toužíš poznat něco navíc,
co však nevíš sám,
objevit svět nepoznaný,
stoupat ke hvězdám.

Pár let se dá tak prožít,
je to celkem fajn,
život je jak velkej flám.

®

{Bridge}
G#miŘíct si zda jsem zvážněl,
C#miči jsem chytřejší
však D#miváhám, však C#váhám…

{Sólo}

®: Najednou ti dojde, že se chováš jak ten…

2x ®: C#Najednou ti dojde, že se chováš jak ten
Bmiblázen (jako blázen, jako bloud)
a víš D#mijasně, že chceš víc,
než mít F#holku na měG#síc.
C#Před očima náhle zjeví se ti všechny
Bmitváře (tváře s adresou),
kde znáš D#mipostel a jen skříň,
jsi jen F#hostem mezi G#vším.

C#

Karaoke songs of this artist from our production:

Lepší svět audio, video ... od 65 CZK

Jsem sám audio, video ... od 65 CZK

Jsi volná audio, video ... od 65 CZK

Jednou nebe zavolá audio, video ... od 65 CZK

0,00 CZK
(0,00 EUR)

Best karaoke tips:

Karaoke song Everlasting love - Sandra, Published: 2008-02-25 09:09:22 Everlasting love MIDI, MP3, video ... 65,00 CZK

Karaoke song Neverending story - Limahl, Published: 2008-02-25 09:10:29 Neverending story MIDI, MP3, video ... 65,00 CZK

Karaoke song I´m The One And Only - Chesney Hawkes, Published: 2008-04-14 14:58:24 I´m The One And Only MIDI, MP3, video ... 65,00 CZK

Karaoke song Nothing´s Gonna Change My Love For You - Glen Medeiros, Published: 2008-05-10 12:18:19 Nothing´s Gonna Change My L... MIDI, MP3, video ... 65,00 CZK

Karaoke song Teardrops - Shakin´Stevens, Published: 2008-07-01 15:04:26 Teardrops MIDI, MP3, FullHD video ... 75,00 CZK

Karaoke song United - Judas Priest, Published: 2008-07-16 10:43:00 United MIDI, MP3, video ... 65,00 CZK

Karaoke song Painter Man - Boney M, Published: 2008-11-03 23:15:04 Painter Man MIDI, MP3, video ... 65,00 CZK

Karaoke song Turbo Lover - Judas Priest, Published: 2009-01-29 14:47:20 Turbo Lover MIDI, MP3, video ... 65,00 CZK

Karaoke song Lick It Up - Kiss, Published: 2009-02-03 21:21:58 Lick It Up MIDI, MP3, video ... 65,00 CZK

TOPlist TOPlist
Přihlášení / registrace:
Přihlásit se přes Facebook
Login:
Heslo:
 
- nová registrace
- zapomenuté heslo

Payment Gateway for karaoke
Vytištěno ze serveru www.musicer.net