Lyrics started by: 1 |2 |3 |4 |5 |6 |7 |8 |9 |a |b |c |d |e |f |g |h |i |j |k |l |m |n |o |p |q |r |s |t |u |v |w |x |y |z
More then 1900 karaoke song in 29 filetypes. 1,1 TB for your own ON-LINE download. Pay by Card or PayPal!
 

Lyrics of a song Katapult - Hlupák váha + sólo/outro

>> LYRICS >> LYRICS k >> Katapult >>
1f67 #----------------------------------PLEASE NOTE---------------------------------#
#This file is the author's own work and represents their interpretation of the #
#song. You may only use this file for private study, scholarship, or research. #
#------------------------------------------------------------------------------##


HLUPÁK VÁHA (Live)
As recorded by Katapult
(From the Album 2006 - Live 1978)

Transcribed by daamien@pobox.sk, ondrakk@marihuana.com
Corrected & added: 2002-11-17

~: normal vibrato
p: pull off
h: hammer on
s: slide
b: bend
r: released bend
PM: palm muted

Tunning: standard E

Intro
*****
       
|--------------3------------1----------2-2------0----|
|-----5--5~3-----3-3------1---1------0-----0----1----|
|-2-4--------5----------2-------2------------0--2----|
|---------------------3------------0------------2----|
|---------------------3------------2-----------------|
|---------------------1------------3-----------------|



|--------------------------------1----------2-2------0----|
|-------5~5--5p3---3--5p3------1---1------0-----0----1----|
|-2-4-2----------5-----------2-------2------------0--2----|
|--------------------------3------------0------------2----|
|--------------------------3------------2-----------------|
|--------------------------1------------3-----------------|


Verse 1
*******
[Am] Když ti svoje záda [G] štěstí uká [D] že
[F] nála [G] du máš mizer [Am] nou

těžko se ti hledá trocha kuráže
zůstaneš stát jako sloup

Figúry akordov

Am G D
|-----0--------0--------3--------2------|
|-------1--------1--------0--------3----|
|---2--------2--------0--------2--------|
|-2--------2--------0--------0----------|
|-0--------0--------2--------0----------|
|-------------------3-------------------|

F G Am
|-----1-------3---0-0-|-0-0-0-0-0-0----|
|-------1-------0-1-1-|-1-1-1-1-1-1----|
|---2-------0-----2-2-|-2-2-2-2-2-2----|
|-3-------0-------2-2-|-2-2-2-2-2-2----|
|-3-------2-------0-0-|-0-0-0-0-0-0----|
|-1-------3-----------|----------------|


Potom nasleduje niečo takéto:

|-------------------3-3------------1----------2-2------0----|
|-------5~5--5p3--------3-3------1---1------0-----0----1----|
|-2-4-2----------5-------------2-------2------------0--2----|
|----------------------------3------------0------------2----|
|----------------------------3------------2-----------------|
|----------------------------1------------3-----------------|


Verse 2 (rovnaké akordy ako vo Verse 1)
*******
Když máš kamáráda a on tě podrazí
náladu máš mizernou
tehdy jeho zrada v srdci zamrazí
zůstaneš stát jako sloup


Chorus
******
[F] Hlupák [G] váhá, [Am] svět kupředu uhání
hlupák váhá, ztrácí život v čekání
hlupák váhá, ale život utíká
hlupák vá [G] há [E] á

Figúry akordov

F G Am F G E
PM PM PM PM
|-1--1---3--3---0-0-0-0-|-0-0-0-0-0-0---1--1-|--3--3---0----|
|-1--1---3--3---1-1-1-1-|-1-1-1-1-1-1---1--1-|--3--3---0----|
|-2--2---4--4---2-2-2-2-|-2-2-2-2-2-2---2--2-|--4--4---1----|
|-3--3---5--5---2-2-2-2-|-2-2-2-2-2-2---3--3-|--5--5---2----|
|-3--3---5--5---0-0-0-0-|-0-0-0-0-0-0---3--3-|--5--5---2----|
|-1--1---3--3-----------|---------------1--1-|--3--3---0----|


Solo
****
nasleduje po choruse
|-------------------|-------------------------------------------------|
|---------5-5~5p3---|-3-5p3---3-----------------5b6r5-3---3h5p3-------|
|-0-2h4p2---------5-|-------5-----------0h2-4s5---------5-------5-2~~~|
|-------------------|---------------0h2-------------------------------|
|-------------------|-------------3-----------------------------------|
|-------------------|-------------------------------------------------|
*************

|------------------------------------------------------|
|-------5-5~~8s5-3----3---------5b6r5-3---3h5p3--------|
|-2-4-2-------------5----2-4s5----------5-------5-2~~~~|
|------------------------------------------------------|
|------------------------------------------------------|
|------------------------------------------------------|

V ohviezdičkovanej časti sa hrá krátka rýchla medzihra, ktorou si nie som celkom istý. Spravil som tam len mierne upravený run na stupnici C dur, trochu sa to podobá.


Verse 3
*******
Když máš kamáráda a on tě podrazí
náladu máš mizernou
tehdy jeho zrada v srdci zamrazí
zůstaneš stát jako sloup

Opakuj chorus

Outro
*****

|------------------------------------|
|----------5--5s8-3---3--5p3---------|
|-0-2h4p2-----------5---------5-2~~~~|
|------------------------------------|
|------------------------------------|
|------------------------------------|


|-------------------------------------------|
|---------3--5h8--5h8p5-3----3-5p3----------|
|-0-2-4-5------------------5-------5-2-2~~~~|
|-------------------------------------------|
|-------------------------------------------|
|-------------------------------------------|
fade out


Pozn.: V niektorých častiach sóla a ukončenia sa dajú použiť namiesto hammer ons a pull offs bendy. Skúste to a bude to znieť hneď lepšie.

Karaoke songs of this artist from our production:

Já nesnídám sám audio, video ... od 65 CZK

Někdy příště audio, video ... od 65 CZK

Stovky hotelů audio, video ... od 65 CZK

Půlnoční závodní dráha audio, FullHD video ... od 70 CZK

0,00 CZK
(0,00 EUR)

Our random tips:

Karaoke songs of this artist from our production:

Koala audio, video ... od 65 CZK

Planeta snů audio, video ... od 65 CZK

Sláva bláznivým nápadům audio, video ... od 65 CZK

Chodili chlapci k nám (EV) audio, FullHD video ... od 73 CZK

TOPlist TOPlist
Přihlášení / registrace:
Přihlásit se přes Facebook
Login:
Heslo:
 
- nová registrace
- zapomenuté heslo

Payment Gateway for karaoke
Vytištěno ze serveru www.musicer.net