Lyrics started by: 1 |2 |3 |4 |5 |6 |7 |8 |9 |a |b |c |d |e |f |g |h |i |j |k |l |m |n |o |p |q |r |s |t |u |v |w |x |y |z
More then 1900 karaoke song in 29 filetypes. 1,1 TB for your own ON-LINE download. Pay by Card or PayPal!
 

Lyrics of a song Judas Priest - Breaking The Law Bassa

>> LYRICS >> LYRICS j >> Judas Priest >>
Mxtabs [http://www.mxtabs.net]
Judas Priest
Breaking the Law

Intro
G||--------------------------|--------------------------|
D||--------------------------|--------------------------|
A||-0-2-3--0-2-3--0-2-3------|-----------------3-2--------| (Repeat x3)
E||--------------------------|-1-3-5---1-3-5-3----------------|

G||--------------------------|--------------------------|--------------------------|--------------------------|
D||--------------------------|--------------------------|--------------------------|--------------------------|
A||--------------------------|--------------------------|--------------------------|--------------------------|
E||--5--5--5--5--5--5--5--5--|--5--5--5--5--5--5--5--5--|--1--1--1--1--1--1--1--1--|--3--3--3--3--3--3--3--3--|

|--------------------------|--------------------------|--------------------------|--------------------------|
|--------------------------|--------------------------|--------------------------|--------------------------|
|--------------------------|--------------------------|--3--3--3--3--------------|--------------------------| [x2]
|--5--5--5--5--5--5--5--5--|--5--5--5--5--5--5--5--5--|--------------3--3--3--3--|--5--5--5--5--5--5--5--5--|

|--------------------------|--------------------------|--------------------------|--------------------------|
|--------------------------|--------------------------|--------------------------|--------------------------|
|--------------------------|--------------------------|--3--3--3--3--3--3--3--3--|--3--3--3--3--3--3--3--3--|
|--1--1--1--1--1--1--1--1--|--1--1--1--1--1--1--1--1--|--------------------------|--------------------------|

|--------------------------|--------------------------|--------------------------|-------------------|
|--------------------------|--------------------------|--------------------------|-------------------|
|--------------------------|--------------------------|--------------------------|-------------------|
|--1--1--1--1--1--1--1--1--|--1--1--1--1--1--1--1--1--|--0--0--0--0--0--0--0--0--|--0----------------|

Chorus
"Breaking the law, breaking the law, Breaking the law"
G||--------------------------|--------------------------|
D||--------------------------|--------------------------|
A||-0-2-3--0-2-3--0-2-3------|----------------3-2--------| (Repeat x3)
E||--------------------------|-1-3-5--1-3-5-3------------|

(Chorus)

|--------------------------|--------------------------|
|--------------------------|--------------------------|
|--2--2--2--2--2--2--2--2--|--2--2--2--2--5--5--5--5--| [x4]
|--------------------------|--------------------------|

|--------------------------|--------------------------|--------------------------|--------------------------|
|--------------------------|--3--3--3-----------------|--------------------------|--------------5--5--5--5--|
|--5--5--5--5--5--5--5--5--|-----------3--3--3--3--5--|--5--5--5--5--5--5--5--5--|--8--8--8--8--------------| [x2]
|--------------------------|--------------------------|--------------------------|--------------------------|

|-------------------|-------------------|--------------------|
|-------------------|-------------------|--------------------|
|-------------------|-------------------|--------------------|
|--1----------------|--3----------------|--5--------5--------|

|--------------------|----------------------|--------------------------|
|--------------------|----------------------|--------------------------|
|--------------------|----------------------|--------------------------|
|--5--------5--------|--1----1----1----1----|--3--3--3--3--3--3--3--3--|

---------------------------------- 22b6

Karaoke songs of this artist from our production:

Turbo Lover audio, video ... od 65 CZK

United audio, video ... od 65 CZK

Breaking The Law audio, video ... od 65 CZK

0,00 CZK
(0,00 EUR)

Our random tips:

Karaoke songs of this artist from our production:

Something audio, video ... od 65 CZK

You are not alone audio, FullHD video ... od 75 CZK

Zrcadlo audio, video ... od 65 CZK

Moravo Moravěnko audio, FullHD video ... od 73 CZK

TOPlist TOPlist
Přihlášení / registrace:
Přihlásit se přes Facebook
Login:
Heslo:
 
- nová registrace
- zapomenuté heslo

Payment Gateway for karaoke
Vytištěno ze serveru www.musicer.net