Lyrics started by: 1 |2 |3 |4 |5 |6 |7 |8 |9 |a |b |c |d |e |f |g |h |i |j |k |l |m |n |o |p |q |r |s |t |u |v |w |x |y |z
More then 1900 karaoke song in 29 filetypes. 1,1 TB for your own ON-LINE download. Pay by Card or PayPal!
 

Lyrics of a song Horkýže slíže - Bicie v 85-tom

>> LYRICS >> LYRICS h >> Horkýže slíže >>
Alba s touto skladbou: Kýže slíž,


Najprv sa hra toto:

1.gitara
E----------------------------------------/
H----------------------------------------/
G------7-7-7-7-7-7-7-7-------------------/
D------7-7-7-7-7-7-7-7-8-8-8-8-8-8-8-8---/
A------5-5-5-5-5-5-5-5-8-8-8-8-8-8-8-8---/
E----------------------6-6-6-6-6-6-6-6---/

2.gitara(solo)
E-----------------------------------/
H--3-1-2----------------------------/
G--------0-2-0-2---3---2---0--------/
D----------------0-----------3-2-0--/
A-----------------------------------/
E-----------------------------------/

sloha
Preco sa na tom smejete...(2x)
x-tlmenie

x x x x x x x x
E----------------------------------------/
H----------------------------------------/
G------7-7-7-7-7-7-7-7-------------------/
D------7-7-7-7-7-7-7-7-8-8-8-8-8-8-8-8---/
A------5-5-5-5-5-5-5-5-8-8-8-8-8-8-8-8---/
E----------------------6-6-6-6-6-6-6-6---/

Z Guinessovej knihy... (2x)

E-----------------------------------------------------------------------/
H-----------------------------------------------------------------------/
G--------------------------------------7-7-7-7-----------------7-7-7-7--/
D------5-5-5-5-5-5-5-5-7-7-7-7-7-7-7-7-7-7-7-7-5-5-5-5-7-7-7-7-7-7-7-7--/
A------5-5-5-5-5-5-5-5-7-7-7-7-7-7-7-7-5-5-5-5-5-5-5-5-7-7-7-7-5-5-5-5--/
E------3-3-3-3-3-3-3-3-5-5-5-5-5-5-5-5---------3-3-3-3-5-5-5-5----------/

Potom sa hra zasa sloha a potom uz ide
nesmejte sa na tom.. to sa hra najprv tak ako hore a druhy raz takto:

E------------------------------------------------------- /
H------------------------------------------------------- /
G--------------------------------------7-7-7-7---------- S /
D------5-5-5-5-5-5-5-5-7-7-7-7-7-7-7-7-7-7-7-7-5-5-5-5-7 T dum dum /
A------5-5-5-5-5-5-5-5-7-7-7-7-7-7-7-7-5-5-5-5-5-5-5-5-7 O dum dum /
E------3-3-3-3-3-3-3-3-5-5-5-5-5-5-5-5---------3-3-3-3-5 P dum dum(bicie) /

a zasa pamatate sa v osemdesiat...

E----------- /
H----------- /
G----------- S /
D--5-5-5-5-7 T dum dum.../
A--5-5-5-5-7 O /
E--3-3-3-3-5 P /


A potom ide zasa to co na zaciatku.
Docela jednoduche. Dufam ze som sa nepomylil.

dff@email.cz

Karaoke songs of this artist from our production:

Silný refrén audio, video ... od 65 CZK

0,00 CZK
(0,00 EUR)

Our random tips:

Karaoke songs of this artist from our production:

Esemes audio, video ... od 65 CZK

Nádraží (United) audio, FullHD video ... od 75 CZK

Děti z Pirea audio, FullHD video ... od 75 CZK

Co se stalo přihodilo na ho... audio, FullHD video ... od 65 CZK

TOPlist TOPlist
Přihlášení / registrace:
Přihlásit se přes Facebook
Login:
Heslo:
 
- nová registrace
- zapomenuté heslo

Payment Gateway for karaoke
Vytištěno ze serveru www.musicer.net