Lyrics started by: 1 |2 |3 |4 |5 |6 |7 |8 |9 |a |b |c |d |e |f |g |h |i |j |k |l |m |n |o |p |q |r |s |t |u |v |w |x |y |z
More then 1900 karaoke song in 29 filetypes. 1,1 TB for your own ON-LINE download. Pay by Card or PayPal!
 

Lyrics of a song Horkýže slíže - Banda tupých hláv - bonusová verzia

>> LYRICS >> LYRICS h >> Horkýže slíže >>

joha toto je najlepsia skladba na tomto albume.co vi na to???

intro:
Priznam sa intro som odkukal s tejto stránky od Kirka Hammeta.sorry ale chcel som aby to bolo kompletné.
prvá gitara(sabotér) 2 gitara(doktor)
E -----------------------------------------------/ -----------------------/
H -----------------------------------------------/ -----------------------/
G ---------11-14-11------------------------------/ -----------------------/
D -9999-12----------12-9------9-10----------9-10-/ -9-9-9-9-9-9--3-3--5-5-/
A -----------------------8888------10101010------/ -9-9-9-9-9-9--3-3--5-5-/
E -----------------------------------------------/ -7-7-7-7-7-7--1-1--3-3-/

sloha:
keby som samuel...
prvá gitara
E --------------------------/ -------------------/
H --------------------------/ -12-------------10-/
G --------------------------/ -11-------------9--/
D -9-9-9-9-9-9--7-7-7-7-7-7-/ -9--------------7--/
A -9-9-9-9-9-9--7-7-7-7-7-7-/ -------------------/
E -7-7-7-7-7-7--5-5-5-5-5-5-/ -------------------/

refrén:
jáj banda tupých hláv...
prvá gitara 2 gitara
E ----------------/ ----7--------------/
H ----------------/ ---7----8---7---5--/
G -4--------------/ --4----7---6---4---/
D -4---5---4---2--/ ------5---4---2----/
A -2---5---4---2--/ -------------------/
E -----3---2---0--/ -------------------/

Dúfam ze je to dobre ak sa vám daco na tom nevidí majlnite na kapustasgrankom@post.sk
joooooooooooooooooooooha






Karaoke songs of this artist from our production:

Silný refrén audio, video ... od 65 CZK

0,00 CZK
(0,00 EUR)

Best karaoke tips:

Karaoke song Everlasting love - Sandra, Published: 2008-02-25 09:09:22 Everlasting love MIDI, MP3, FullHD video ... 75,00 CZK

Karaoke song Neverending story - Limahl, Published: 2008-02-25 09:10:29 Neverending story MIDI, MP3, video ... 65,00 CZK

Karaoke song I´m The One And Only - Chesney Hawkes, Published: 2008-04-14 14:58:24 I´m The One And Only MIDI, MP3, video ... 65,00 CZK

Karaoke song Nothing´s Gonna Change My Love For You - Glen Medeiros, Published: 2008-05-10 12:18:19 Nothing´s Gonna Change My L... MIDI, MP3, video ... 65,00 CZK

Karaoke song Teardrops - Shakin´Stevens, Published: 2008-07-01 15:04:26 Teardrops MIDI, MP3, FullHD video ... 75,00 CZK

Karaoke song United - Judas Priest, Published: 2008-07-16 10:43:00 United MIDI, MP3, FullHD video ... 75,00 CZK

Karaoke song Painter Man - Boney M, Published: 2008-11-03 23:15:04 Painter Man MIDI, MP3, video ... 65,00 CZK

Karaoke song Turbo Lover - Judas Priest, Published: 2009-01-29 14:47:20 Turbo Lover MIDI, MP3, video ... 65,00 CZK

Karaoke song Lick It Up - Kiss, Published: 2009-02-03 21:21:58 Lick It Up MIDI, MP3, video ... 65,00 CZK

TOPlist TOPlist
Přihlášení / registrace:
Přihlásit se přes Facebook
Login:
Heslo:
 
- nová registrace
- zapomenuté heslo

Payment Gateway for karaoke
Vytištěno ze serveru www.musicer.net