Karaoke texty písní1 |2 |3 |4 |5 |6 |7 |8 |9 |a |b |c |d |e |f |g |h |i |j |k |l |m |n |o |p |q |r |s |t |u |v |w |x |y |z
Více než 1900 karaoke skladeb ve 29 formátech. 1,1 TB pro Váš ON-LINE download. Platba na dobírku, převodem nebo kartou.
 

Karaoke text písně Elán - Voda čo ma drží nad vodou

>> KARAOKE TEXTY >> KARAOKE TEXTY e >> Elán >>
Alba s touto skladbou: From Elán, The First, Písničky z pohádek,


#-----------------------------PROSÍM VŠIMNÚŤ SI-----------------------------#
#Mám 15 rokov a hrám na gitaru. Z internetu si sťahujem rôzne tabulatury. Na#
#zahraničných stránkach vždy bolo dostať sola a taby rôznych songov, napr.:#
#Guns n\\\' Roses, Queen, Lenny Kravitz, Clapton, Metallica, Deep Purple, atď.#
#Bol som veľmi sklamaný, keď som si chcel zahrať sola pesničiek od Elánu#
#a zistil som, že nie sú na nete. Tak som si ráno sadol a ztaboval som solo#
#na túto pesničku. Tým chcem povzbudiť všetkých, čo majú radi Elán, aby#
#obohatili túto stránku o ďalšie taby slovenských interprétov. Dúfam, že#
#sa nájdu taký, čo vedia podľa sluchu zahrať sola niektorých pesničiek a#
#budú ochotní zaslať taby na túto stránku. Vďaka za to. Hraniu zdar!#
#---------------------------------------------------------------------------#


Dátum: pondelok, 3. feb. 2003 19:10, (LON)
Od: Milan \\\"Mazzi\\\" Mazár (mazzi@zem.sk)

Elán - Voda, čo ma drží nad vodou;

Guitar solo:

E|---------------------------|--------------|-------------------|
H|---------------------------|--------------|-------------------|
G|------8--9--11--b11--b11~~~|-b11r--9--9~~~|------9--b11--11r~~|
D|-/11-----------------------|--------------|-/11---------------|
A|---------------------------|--------------|-------------------|
E|---------------------------|--------------|-------------------|

E|-------------------|-------------------|----------------------|
H|-------------------|-------------------|----------------------|
G|-9--8--------------|---------8--9--11--|-9---11--8---9--------|
D|-------11--10~~~---|-10--11------------|----------------11~~~-|
A|-------------------|-------------------|----------------------|
E|-------------------|-------------------|----------------------|

E|-----------------------|--------------|-------------------12----12-14-b14~~~-|
H|------------12---------|--------------|-------12-14-12-14----14--------------|
G|------8--9------b11~~~-|-r11--9--8~~~-|--/13---------------------------------|
D|-/11-------------------|--------------|--------------------------------------|
A|-----------------------|--------------|--------------------------------------|
E|-----------------------|--------------|--------------------------------------|

E|-12----12-14-b14~~~-|--------------16----16------|-16-19-b19r-16------------|
H|----14--------------|---17-19-17-19--19---b19~~~-|----------------19-b19~~~-|
G|--------------------|/18-------------------------|--------------------------|
D|--------------------|----------------------------|--------------------------|
A|--------------------|----------------------------|--------------------------|
E|--------------------|----------------------------|--------------------------|

E|-16-19-16h19p16----16-19-16h19p16----16-19-16h19p16----16-19-16h19p16-|
H|----------------19----------------19----------------19----------------|
G|----------------------------------------------------------------------|
D|----------------------------------------------------------------------|
A|----------------------------------------------------------------------|
E|----------------------------------------------------------------------|

E|------------------------|---------------------|-----------------------------|
H|-19-17----17-b19~~~-17--|---------------------|-----------------------------|
G|-------18---------------|--------9--11--b11~~~|-9--8h9p8--------------------|
D|------------------------|-/9--11--------------|-----------11--9--11---------|
A|------------------------|---------------------|----------------------9-11~~~|
E|------------------------|---------------------|-----------------------------|


#Ak máte nejaké pripomienky, alebo ste našli nejaké chyby#
#a chcete ich opraviť, pošlite mi mail na: mazzi@zem.sk#



__________
///////////\\\\ ___
/ \\\\__/ ) ______
/ ____________________ / \\\\
( //::/::::::::::____________________| Gibson{
\\\\ ___ \\\\ \\\\______/
\\\\ / \\\\___\\\\
\\\\_________/



Skladbu hrály například tyto rádia:

2021-01-24 19:56:00   Slovensko
2021-01-22 09:37:00   Slovensko
2021-01-12 13:53:00   Regina - Východ
2021-01-01 04:54:00   Rádio Jemné
2020-12-15 11:37:00   Slovensko
2020-12-11 18:24:00   Rádio Jemné
2020-11-30 02:51:00   Rádio Jemné
2020-11-29 19:12:00   Košice
2020-11-29 13:42:00   Regina - Západ
2020-11-26 13:19:00   Vlna

Karaoke skladby tohoto interpreta z naší produkce:

Sestavte si vlastní Karaoke DVD, CD-G a CDA dle Vašeho výběru

Netrpezliví audio, video ... od 65 CZK

Ver mi audio, FullHD video ... od 75 CZK

Rocker hotel audio, video ... od 65 CZK

Tuláci v podchodoch audio, FullHD video ... od 75 CZK

0,00 CZK
(0,00 EUR)
Zajdi na www.karaoke-zabava.cz sestavit si své vlastní karaoke DVD !!!

Kanály RSS  Seznam karaoke RSS kanálů

Slunko made in Jamaica (Sun... audio, video ... od 65 CZK

Blízko nás audio, video ... od 65 CZK

Někdy příště audio, video ... od 65 CZK

ŠŠŠ šepotám audio, FullHD video ... od 75 CZK

1970 audio, FullHD video ... od 75 CZK

TOPlist TOPlist
Přihlášení / registrace:
Přihlásit se přes Facebook
Login:
Heslo:
 
- nová registrace
- zapomenuté heslo

Platební brána za karaoke
Chcete dostávat novinky na Váš e-mail? Zadejte email:
Vytištěno ze serveru www.musicer.net