Lyrics started by: 1 |2 |3 |4 |5 |6 |7 |8 |9 |a |b |c |d |e |f |g |h |i |j |k |l |m |n |o |p |q |r |s |t |u |v |w |x |y |z
More then 1900 karaoke song in 29 filetypes. 1,1 TB for your own ON-LINE download. Pay by Card or PayPal!
 

Lyrics of a song Elán - Ulica - basa

>> LYRICS >> LYRICS e >> Elán >>
2991
Elán - Ulica



Taby pre basu.


Intro (Vstup do pesničky)
G|-------------|
D|-------------|
A|--5--3--2----|
E|----------3--|
Hneď po tomto sa už spieva tak POZOR lebo keď sa začne
spievať tak basa už hrá!

riff.1
G|------------------------------------|
D|-----2-2-4-4-0-0-----------------2--|
A|-0-0-------------0-0-2-2-4-4-2-2----|
E|------------------------------------|
2xhraj riff.1 potom riff.2

riff.2
G|----------------------------------------------------------------------------------|
D|------4-44-0-00-2-22------4-44------2-22------4-44-0-00-2-22------4-44-0-00-2-22--|
A|-0-00----------------4-44------2-22------0-00----------------4-44-----------------|
E|----------------------------------------------------------------------------------|

Potom hraj 2x riff.1
1x riff.1

KONIEC hra fa to o niečo vyšie.
G|----------------0-00----------------0-00-----------------0-00----------------1-11------------|
D|------4-44-----------2-22-4-44-1-11------------4-44-----------2-22-4-44-1-11------2-22-4-44--|
A|-0-00------2-22---------------------------4-44------2-22-------------------------------------|
E|---------------------------------------------------------------------------------------------|

*** KONIEC ***


E - mail: matthew5@post.sk

Karaoke songs of this artist from our production:

Kde si audio, FullHD video ... od 75 CZK

Kaskadér audio, FullHD video ... od 70 CZK

Tanečnice z Lúčnice audio, FullHD video ... od 75 CZK

Aj keď bez peňazí audio, video ... od 65 CZK

0,00 CZK
(0,00 EUR)

Best karaoke tips:

Karaoke song Everlasting love - Sandra, Published: 2008-02-25 09:09:22 Everlasting love MIDI, MP3, video ... 65,00 CZK

Karaoke song Neverending story - Limahl, Published: 2008-02-25 09:10:29 Neverending story MIDI, MP3, video ... 65,00 CZK

Karaoke song I´m The One And Only - Chesney Hawkes, Published: 2008-04-14 14:58:24 I´m The One And Only MIDI, MP3, video ... 65,00 CZK

Karaoke song Nothing´s Gonna Change My Love For You - Glen Medeiros, Published: 2008-05-10 12:18:19 Nothing´s Gonna Change My L... MIDI, MP3, video ... 65,00 CZK

Karaoke song Teardrops - Shakin´Stevens, Published: 2008-07-01 15:04:26 Teardrops MIDI, MP3, FullHD video ... 75,00 CZK

Karaoke song United - Judas Priest, Published: 2008-07-16 10:43:00 United MIDI, MP3, FullHD video ... 75,00 CZK

Karaoke song Painter Man - Boney M, Published: 2008-11-03 23:15:04 Painter Man MIDI, MP3, video ... 65,00 CZK

Karaoke song Turbo Lover - Judas Priest, Published: 2009-01-29 14:47:20 Turbo Lover MIDI, MP3, video ... 65,00 CZK

Karaoke song Lick It Up - Kiss, Published: 2009-02-03 21:21:58 Lick It Up MIDI, MP3, video ... 65,00 CZK

TOPlist TOPlist
Přihlášení / registrace:
Přihlásit se přes Facebook
Login:
Heslo:
 
- nová registrace
- zapomenuté heslo

Payment Gateway for karaoke
Vytištěno ze serveru www.musicer.net