Lyrics started by: 1 |2 |3 |4 |5 |6 |7 |8 |9 |a |b |c |d |e |f |g |h |i |j |k |l |m |n |o |p |q |r |s |t |u |v |w |x |y |z
More then 1900 karaoke song in 29 filetypes. 1,1 TB for your own ON-LINE download. Pay by Card or PayPal!
 

Lyrics of a song Elán - Smrtka na Prazskom orloji - bass tab

>> LYRICS >> LYRICS e >> Elán >>
ELÁN - Smrtka na prazskom orloji

Bass tab

Intro:

G|-----------------
D|-----------------
A|----------------- 2x
E|6/1--6/1--6/8--6-

Sloha:

G|--------------------------------------------------------------
D|--------------------------------------------------------------
A|-----6--6----------------6--6----------------6--6-------------
E|6--6------6--4/6--4/6--6------6--4/6--4/6--6------6--4/6--6/1-

Medzihra:

G|-------------------------------------------
D|------------6-6-------------------6-6------
A|-------------------------------------------
E|6-5-4-3-4--4-4--1--4--6-5-4-3-4--4-4--1--4-

Refren:

G|----------------------------------------------------------------
D|----------------------------------------------------------------
A|----------------4-4-3-3-4-4-4-4-4-4-3-3-4-4-4-4-----------------
E|6-6-4-4-6-6-6-6---------------------------------6-6-4-4-6-6-6-6-

Je to z Megakoncetru povodne podladene do D#

Karaoke songs of this artist from our production:

Ver mi audio, FullHD video ... od 75 CZK

Zalúbený audio, FullHD video ... od 75 CZK

Stužková audio, FullHD video ... od 75 CZK

Sestrička z Kramárov audio, FullHD video ... od 75 CZK

0,00 CZK
(0,00 EUR)

Best karaoke tips:

Karaoke song Believe in Love - Scorpions, Published: 2009-08-05 13:01:21 Believe in Love MIDI, MP3, video ... 65,00 CZK

Karaoke song Downtown - Petula Clark, Published: 2009-08-26 12:31:59 Downtown MIDI, MP3, video ... 65,00 CZK

Karaoke song Word Of Mouth - Mike & The Mechanics, Published: 2010-01-22 12:05:23 Word Of Mouth MIDI, MP3, video ... 65,00 CZK

Karaoke song Is This The Way To Amarillo - Tony Christie feat Peter Kay, Published: 2010-03-03 10:40:08 Is This The Way To Amarillo MIDI, MP3, video ... 65,00 CZK

Karaoke song So Serious - ELO ( Electric Light Orchestra ), Published: 2012-02-22 09:15:30 So Serious MIDI, MP3, video ... 65,00 CZK

Karaoke song Breaking The Law - Judas Priest, Published: 2012-02-21 09:54:45 Breaking The Law MIDI, MP3, video ... 65,00 CZK

Karaoke song Mama I'm coming home - Ozzy Osbourne, Published: 2014-06-11 08:50:17 Mama I'm coming home MIDI, MP3, FullHD video ... 80,00 CZK

Karaoke song Lucky - Bernie Paul, Published: 2014-03-17 07:54:49 Lucky MIDI, MP3, FullHD video ... 75,00 CZK

TOPlist TOPlist
Přihlášení / registrace:
Přihlásit se přes Facebook
Login:
Heslo:
 
- nová registrace
- zapomenuté heslo

Payment Gateway for karaoke
Vytištěno ze serveru www.musicer.net