Lyrics started by: 1 |2 |3 |4 |5 |6 |7 |8 |9 |a |b |c |d |e |f |g |h |i |j |k |l |m |n |o |p |q |r |s |t |u |v |w |x |y |z
More then 1900 karaoke song in 29 filetypes. 1,1 TB for your own ON-LINE download. Pay by Card or PayPal!
 

Lyrics of a song Elán - Sestricka z Kramarov - bass tab

>> LYRICS >> LYRICS e >> Elán >>
ELÁN - Sestricka z Kramarov

Bass tab


Intro:

G|----------------------------------------------------------------
D|----------------------------------------------------------------
A|2-2-2-2-5-5-----2-2-2-2-5-5-----2-2-2-2-5-5---------------------
E|------------5-5-------------5-5-------------5-5-3-3-3-3-5-5-5-5-


Sloha:

G|----------------------------------------------------------------
D|----------------------------------------------------------------
A|2-2-2-2---------2-2-2-2---------2-2-2-2-------------------------
E|--------3-3-3-3---------3-3-3-3---------3-3-3-3-2-2-2-2-3-3-3-3-


Refren:

G|---4------------------------------------------------------------
D|------7---------------------------------------------------------
A|5-----------4-7---9-5---------4-----2-5-----------------0-0-2-4-
E|--------5-5-----7-----7-22-55---3-3-----2-2-5-2-0-0-2-3---------

Karaoke songs of this artist from our production:

Zanedbaný sex audio, FullHD video ... od 75 CZK

Rocker hotel audio, video ... od 65 CZK

Sestrička z Kramárov audio, FullHD video ... od 75 CZK

Stužková audio, FullHD video ... od 75 CZK

0,00 CZK
(0,00 EUR)

Our random tips:

Karaoke songs of this artist from our production:

Slovník cudzých snov audio, video ... od 65 CZK

Everlasting love audio, video ... od 65 CZK

Znamení lásky audio, video ... od 65 CZK

Stůj audio, video ... od 65 CZK

TOPlist TOPlist
Přihlášení / registrace:
Přihlásit se přes Facebook
Login:
Heslo:
 
- nová registrace
- zapomenuté heslo

Payment Gateway for karaoke
Vytištěno ze serveru www.musicer.net