Lyrics started by: 1 |2 |3 |4 |5 |6 |7 |8 |9 |a |b |c |d |e |f |g |h |i |j |k |l |m |n |o |p |q |r |s |t |u |v |w |x |y |z
More then 1900 karaoke song in 29 filetypes. 1,1 TB for your own ON-LINE download. Pay by Card or PayPal!
 

Lyrics of a song Elán - Sestrička s Kramárov - basgitara

>> LYRICS >> LYRICS e >> Elán >>

Elán - Sestrička z Kramárov

Taby pre basu.


Intro
G|----------------------------------------------------------------------------|
D|----------------------------------------------------------------------------|
A|-2-2-2-2--5-5--0-0--2-2-2-2--5-5--0-0--2-2-2-2--5-5--0-0--2-2-2-2--5-5--0-0-|
E|----------------------------------------------------------------------------|

riff.1
G|----------------------------------------------------------------------------|
D|----------------------------------------------------------------------------|
A|-2-2-2-2--5-5--0-0--2-2-2-2--5-5--0-0--2-2-2-2--5-5--0-0--2-2-2-2--5-5--0-0-|
E|----------------------------------------------------------------------------|
2x opakuj


Refren:
G|---------------------------------------------|
D|---------------------------------------------|
A|-5--3--2--1--0---3--5------------------------|
E|----------------------5--3--2--1--0---3--5---|

Potom hraj :
riff.1 aj s opakovaním
refrén
riff.1 aj s opakovaním
refrén
riff.1 aj s opakovaním
refrén
refrén




(Miki) matthew5@post.sk

Karaoke songs of this artist from our production:

Ver mi audio, FullHD video ... od 75 CZK

Od Tatier k Dunaju audio, FullHD video ... od 75 CZK

Kde si audio, FullHD video ... od 75 CZK

Královna bielych tenisek audio, FullHD video ... od 75 CZK

0,00 CZK
(0,00 EUR)

Our random tips:

Karaoke songs of this artist from our production:

Youre My Best Friend audio, video ... od 65 CZK

Pampelišky audio, video ... od 65 CZK

Jsou svátky audio, FullHD video ... od 75 CZK

Hey Boy (album version) audio, video ... od 65 CZK

TOPlist TOPlist
Přihlášení / registrace:
Přihlásit se přes Facebook
Login:
Heslo:
 
- nová registrace
- zapomenuté heslo

Payment Gateway for karaoke
Vytištěno ze serveru www.musicer.net