Karaoke texty písní1 |2 |3 |4 |5 |6 |7 |8 |9 |a |b |c |d |e |f |g |h |i |j |k |l |m |n |o |p |q |r |s |t |u |v |w |x |y |z
Více než 1900 karaoke skladeb ve 29 formátech. 1,1 TB pro Váš ON-LINE download. Platba na dobírku, převodem nebo kartou.
 

Karaoke text písně Elán - Odkazovač - BASGITARA

>> KARAOKE TEXTY >> KARAOKE TEXTY e >> Elán >>
27cf
Elán - Odkazovač


Taby pre basu.

p - notu ktorá je označené ,,p,,
zahráme viazane s predchádzajúcou
notou


Intro *treba počut pesničku*
G|------------------------------------------------------------|
D|------------------------------------------------------------|
A|------3p0-----3p0-------0-2-3-5-7-7-5-3-7-5-3-7-5-3-3p0-----|
E|-3p0------3p0-----0-1-3-------------------------------------|

riff. 1
G|-------------------------------------|
D|-------------------------------------|
A|-3-3-----3-3-----5-5p8p5-------------|
E|-----1-1-----1-1---------3-3-1-1-3-3-|
opakuj.

Refrén:
G|-------------------------------------|
D|-------------------------------------|
A|-333-----333-----333-----333---------|
E|-----3p1-----3p1-----3p1-----3p1-----|

Potom hraj : riff.1
refrén
refrén o poltóna vyššie.


matthew5@post.sk

Karaoke skladby tohoto interpreta z naší produkce:

Sestavte si vlastní Karaoke DVD, CD-G a CDA dle Vašeho výběru

Kaskadér audio, FullHD video ... od 70 CZK

Zlodej slnečníc audio, video ... od 65 CZK

O láske audio, video ... od 65 CZK

Královna bielych tenisek audio, FullHD video ... od 75 CZK

0,00 CZK
(0,00 EUR)
Zajdi na www.karaoke-zabava.cz sestavit si své vlastní karaoke DVD !!!

Kanály RSS  Seznam karaoke RSS kanálů

Tip z naší nabídky karaoke klipů v DVD rozlišení:

... poskládejte si na zakázku karaoke DVD.

Zafúkané audio, FullHD video ... od 75 CZK

All Shook Up audio, video ... od 65 CZK

Spoločně audio, video ... od 65 CZK

Dělání, dělání audio, FullHD video ... od 75 CZK

Mám novou známou audio, video ... od 65 CZK

TOPlist TOPlist
Přihlášení / registrace:
Přihlásit se přes Facebook
Login:
Heslo:
 
- nová registrace
- zapomenuté heslo

Platební brána za karaoke
Chcete dostávat novinky na Váš e-mail? Zadejte email:
Vytištěno ze serveru www.musicer.net