Lyrics started by: 1 |2 |3 |4 |5 |6 |7 |8 |9 |a |b |c |d |e |f |g |h |i |j |k |l |m |n |o |p |q |r |s |t |u |v |w |x |y |z
More then 1900 karaoke song in 29 filetypes. 1,1 TB for your own ON-LINE download. Pay by Card or PayPal!
 

Lyrics of a song Elán - Láska moja - intro

>> LYRICS >> LYRICS e >> Elán >>

E -1--0-------------|-1--0-----------0-|
H -------3--1-------|-------3--1--3----|
G -------------3--2-|------------------|
D ------------------|------------------|
A ------------------|------------------|
E ------------------|------------------|

E -1--0-------------|-1--0--0-1--------|
H -------3--1-------|-----------3------|
G -------------3--2-|------------------|
D ------------------|------------------|
A ------------------|------------------|
E ------------------|------------------|

Karaoke songs of this artist from our production:

Slobodná audio, video ... od 65 CZK

Že mi je ľúto audio, FullHD video ... od 80 CZK

Bosorka audio, FullHD video ... od 80 CZK

Rocker hotel audio, video ... od 65 CZK

0,00 CZK
(0,00 EUR)

Our random tips:

Karaoke songs of this artist from our production:

The Winner Takes It All audio, FullHD video ... od 65 CZK

Nafta, benzín a petrolej audio, video ... od 65 CZK

Surrender audio, video ... od 65 CZK

Hrajte, já ráda tancuju audio, video ... od 65 CZK

TOPlist TOPlist
Přihlášení / registrace:
Přihlásit se přes Facebook
Login:
Heslo:
 
- nová registrace
- zapomenuté heslo

Payment Gateway for karaoke
Vytištěno ze serveru www.musicer.net