Lyrics started by: 1 |2 |3 |4 |5 |6 |7 |8 |9 |a |b |c |d |e |f |g |h |i |j |k |l |m |n |o |p |q |r |s |t |u |v |w |x |y |z
More then 1900 karaoke song in 29 filetypes. 1,1 TB for your own ON-LINE download. Pay by Card or PayPal!
 

Lyrics of a song Elán - Koľko a čo za to - intro

>> LYRICS >> LYRICS e >> Elán >>

E----------------------------------------------
H----------------------------------------------
G---2-------0--2-0------2----------------------
D---2-------0--2-0------2---------0------------
A-0---0-3-0--------3--0---0-3-0-3---3----------
E----------------------------------------------


E----------------------------------------------
H----------------------------------------------
G---2-------0--2-0------2----------------------
D---2-------0--2-0------2---------2------------
A-0---0-3-0--------3--0---0-3-0-3---3----------
E----------------------------------------------

Karaoke songs of this artist from our production:

Ulica audio, FullHD video ... od 80 CZK

Čakám ťa láska audio, FullHD video ... od 75 CZK

Láska moja audio, video ... od 65 CZK

Zanedbaný sex audio, FullHD video ... od 75 CZK

0,00 CZK
(0,00 EUR)

Our random tips:

Karaoke songs of this artist from our production:

Lajla audio, video ... od 65 CZK

Campana sobre Campana audio, FullHD video ... od 70 CZK

Jednou audio, FullHD video ... od 75 CZK

Midnight lady audio, video ... od 65 CZK

TOPlist TOPlist
Přihlášení / registrace:
Přihlásit se přes Facebook
Login:
Heslo:
 
- nová registrace
- zapomenuté heslo

Payment Gateway for karaoke
Vytištěno ze serveru www.musicer.net