Lyrics started by: 1 |2 |3 |4 |5 |6 |7 |8 |9 |a |b |c |d |e |f |g |h |i |j |k |l |m |n |o |p |q |r |s |t |u |v |w |x |y |z
More then 1900 karaoke song in 29 filetypes. 1,1 TB for your own ON-LINE download. Pay by Card or PayPal!
 

Lyrics of a song Elán - Kamikedze lásky - basgitara

>> LYRICS >> LYRICS e >> Elán >>

Elán Kamikadze lásky

Taby pre basu.


Intro hraj 4x
G|--------------|
D|--------------|
A|-----2-4------|
E|-0-4----------|

riff.1 (Keď sa už spieva.)
G|--------------|
D|--------------|
A|-----2-4------|
E|-0-4----------|

opakuj 4x

riff.2
G|-------------|
D|-----2-4-----|
A|-0-4---------|
E|-------------|
opakuj 2x

riff.3
G|-4-2-------------------|
D|-----4-2---------------|
A|---------4-2-----------|
E|-------------4-2-------|
Potom hraj riff.1 2x
riff.2 1x
riff.4
G|-4-2-------------------|
D|-----4-2---------------|
A|---------4-2-----------|
E|-------------4-2-0-2-4-|

potom riff.1 aj s opakovaním
potom riff.2 aj s opakovaním
potom riff.3
potom riff.4

riff.3
Na mňa totiž....
G|-------------|
D|-------------|
A|-------------|
E|-0-0-0-0-----|
hraj 6x

riff.4
Vchod: V predsieni....
G|---------------|
D|---------------|
A|---------------|
E|-12-10-9-------|
3x opakuj

potom
G|-----------------|
D|-----------------|
A|-----------------|
E|-12-10-9-7-5-4---|

riff.5 Som Kamikadze lásky...
G|-----------|
D|-----------|
A|-----2-4---|
E|-0-4-----0-|
3x opakuj

Sólo
G|-----------------------------------------------2------------------2---------------------------------4-2-------------------|
D|---------2------------------2--------------2-4---4-2----------2-4---4-2-------------------------2-4-----4-2---------------|
A|-----2-4---4-2----------2-4---4-2------0-4-----------4-0--0-4-----------4------2-4-----2-4--0-4-------------4-2-----------|
E|-0-4-----------4-2--0-4-----------4-0--------------------------------------0-4-----0-4--------------------------4-2-0-2-4-|

Aj s opakovaním a so všetkým. V podstate sa to všetko hrá od začiatku!
riff.1
riff.2
riff.3
riff.4
riff.1

(MateZ) matthew5@post.sk






Karaoke songs of this artist from our production:

Sestrička z Kramárov audio, FullHD video ... od 75 CZK

Aj keď bez peňazí audio, video ... od 65 CZK

Fero - úprava audio, video ... od 65 CZK

Kočka audio, FullHD video ... od 70 CZK

0,00 CZK
(0,00 EUR)

Best karaoke tips:

Karaoke song Believe in Love - Scorpions, Published: 2009-08-05 13:01:21 Believe in Love MIDI, MP3, video ... 65,00 CZK

Karaoke song Downtown - Petula Clark, Published: 2009-08-26 12:31:59 Downtown MIDI, MP3, video ... 65,00 CZK

Karaoke song Word Of Mouth - Mike & The Mechanics, Published: 2010-01-22 12:05:23 Word Of Mouth MIDI, MP3, video ... 65,00 CZK

Karaoke song Is This The Way To Amarillo - Tony Christie feat Peter Kay, Published: 2010-03-03 10:40:08 Is This The Way To Amarillo MIDI, MP3, video ... 65,00 CZK

Karaoke song So Serious - ELO ( Electric Light Orchestra ), Published: 2012-02-22 09:15:30 So Serious MIDI, MP3, video ... 65,00 CZK

Karaoke song Breaking The Law - Judas Priest, Published: 2012-02-21 09:54:45 Breaking The Law MIDI, MP3, video ... 65,00 CZK

Karaoke song Mama I'm coming home - Ozzy Osbourne, Published: 2014-06-11 08:50:17 Mama I'm coming home MIDI, MP3, FullHD video ... 80,00 CZK

Karaoke song Lucky - Bernie Paul, Published: 2014-03-17 07:54:49 Lucky MIDI, MP3, FullHD video ... 75,00 CZK

TOPlist TOPlist
Přihlášení / registrace:
Přihlásit se přes Facebook
Login:
Heslo:
 
- nová registrace
- zapomenuté heslo

Payment Gateway for karaoke
Vytištěno ze serveru www.musicer.net