Lyrics started by: 1 |2 |3 |4 |5 |6 |7 |8 |9 |a |b |c |d |e |f |g |h |i |j |k |l |m |n |o |p |q |r |s |t |u |v |w |x |y |z
More then 1900 karaoke song in 29 filetypes. 1,1 TB for your own ON-LINE download. Pay by Card or PayPal!
 

Lyrics of a song Elán - Kamarati - bass tab

>> LYRICS >> LYRICS e >> Elán >>
2ee1
ELÁN - Kamarati

Bass tab


Intro:

G|----------------------------------------
D|----------------------------------------
A|---------7-------------5----------------
E|0--3--5-----3--5-5--0-----0-0-5-0-5-0-5-


Sloha:
Drzime spolu...
G|-----------------------------
D|---------------------5-7-5---
A|-------------5/7-----------5-
E|-0-0-0-0-0-0-----0-0---------

A nikto nikdy nie je sam:
G|--------------
D|7-7-5---5-----
A|------7---7-5-
E|--------------

Kazdy je frajer...
G|--------------------------
D|--------------------------
A|------------------3-5-3---
E|5-5-3-5-5-3-5-5-5-------3-

My mame...
G|-----------------------------
D|-----------------------------
A|2-2-2-2-5-5-5----------------
E|---------------5-0-5-0-5-0-5-


Refren:

G|--------------------------------------------
D|------------------------------------7-5-----
A|-----------5-7--7-7-7-5--5-5-5-5--5-----7-5-
E|0--0-0-0-0----------------------------------

G|-------------------------------------------------
D|-------------------------------------------------
A|-----------5-7--7-7-7-5--5-5-5-5-5---------------
E|0--0-0-0-0-------------------------5-0-5-0-5-0-5-

G|--------------------------------------------
D|------------------------------------7-5-----
A|-----------5-7--7-7-7-5--5-5-5-5--5-----7-5-
E|0--0-0-0-0----------------------------------

G|-----------------------------------
D|-----------------------------------
A|-----------5-7--7-7-7-5--5-5-5-5-5-
E|0--0-0-0-0-------------------------


Po druhom refrene ide medzihra:

G|-----------------------------------------------------------------
D|-----------------------------------------------------------------
A|-----------------------------------2-3-3-1/3--3-3-1/3--3-3-1/3-3-
E|5-5-3/5--5-5-3/5--5-5-3/5--5-5-3/5-------------------------------

G|----------------------
D|----------------------
A|5-5-7-7-5-0-5-0-5-0-5-
E|----------------------


Posledny refren:

G|--------------------------------------------
D|--------------------------------------------
A|------------------------------------5-3-----
E|5--5-5-5-5-3-5--5-5-5-3--3-3-3-3--3-----3-5-

G|------------------------------------------------
D|------------------------------------------------
A|----------------------------------5-0-5-0-5-0-5-
E|5--5-5-5-5-3-5--5-5-5-3--3-3-3-3----------------

Karaoke songs of this artist from our production:

Ulica audio, FullHD video ... od 80 CZK

Tuláci v podchodoch audio, FullHD video ... od 75 CZK

Osmy svetadiel audio, video ... od 65 CZK

Spolok Cvokov audio, video ... od 65 CZK

0,00 CZK
(0,00 EUR)

Our random tips:

Karaoke songs of this artist from our production:

In-Tango audio, video ... od 65 CZK

Ani k stáru audio, video ... od 65 CZK

Rektutská polka (Břeclavská... audio, FullHD video ... od 70 CZK

Málo mě znáš audio, FullHD video ... od 75 CZK

TOPlist TOPlist
Přihlášení / registrace:
Přihlásit se přes Facebook
Login:
Heslo:
 
- nová registrace
- zapomenuté heslo

Payment Gateway for karaoke
Vytištěno ze serveru www.musicer.net