Lyrics started by: 1 |2 |3 |4 |5 |6 |7 |8 |9 |a |b |c |d |e |f |g |h |i |j |k |l |m |n |o |p |q |r |s |t |u |v |w |x |y |z
More then 1900 karaoke song in 29 filetypes. 1,1 TB for your own ON-LINE download. Pay by Card or PayPal!
 

Lyrics of a song Elán - Hey hey zlato - basgitara

>> LYRICS >> LYRICS e >> Elán >>

Elán - Hey,hey Zlato

Taby pre basu.



Intro
G|------0000-2222-2222------0000-2222-2222------0000-2222-2222------0000-2222-2222------|
D|-0000----------------0000----------------0000----------------0000---------------1p7p1-|
A|--------------------------------------------------------------------------------------|
E|--------------------------------------------------------------------------------------|

riff.1 hraj 2x
G|---------------0-0-0-----------------------0-0-0-----------------|
D|-0-0-0----------------0-0-0--0-0-0----------------0-0-0----------|
A|--------0-0-0-----------------------0-0-0------------------------|
E|---ritmus-sa-rýchlo-dá-naučiť------------------------------------|

Potom hraj intro
riff.1 2xopakuj

Refrén
G|---------------0-0-0-----------------------0-0-0-----------------|
D|-0-0-0----------------0-0-0--0-0-0----------------0-0-0----------|
A|--------0-0-0-----------------------0-0-0------------------------|
E|-----------------------------------------------------------------|

riff.1 2xhraj
potom refrén

riff.2
G|-----------------------------2--------------|
D|-----------------0---2---3-------0----------|
A|-----0---2---3------------------------------|
E|-3------------------------------------------|

riff.1 1xhraj
refrén 1xhraj
riff.2 1xhraj
refrén 2xhraj


Pripomienky>>> matthew5@post.sk

Karaoke songs of this artist from our production:

Zanedbaný sex audio, FullHD video ... od 75 CZK

Kde si audio, FullHD video ... od 75 CZK

Netrpezliví audio, video ... od 65 CZK

Zalúbený audio, FullHD video ... od 75 CZK

0,00 CZK
(0,00 EUR)

Our random tips:

Karaoke songs of this artist from our production:

Štěstí sněží nám audio, FullHD video ... od 80 CZK

Koukám, jak celá země vstává audio, video ... od 65 CZK

Neplač malá audio, video ... od 65 CZK

One and one audio, video ... od 65 CZK

TOPlist TOPlist
Přihlášení / registrace:
Přihlásit se přes Facebook
Login:
Heslo:
 
- nová registrace
- zapomenuté heslo

Payment Gateway for karaoke
Vytištěno ze serveru www.musicer.net