Lyrics started by: 1 |2 |3 |4 |5 |6 |7 |8 |9 |a |b |c |d |e |f |g |h |i |j |k |l |m |n |o |p |q |r |s |t |u |v |w |x |y |z
More then 1900 karaoke song in 29 filetypes. 1,1 TB for your own ON-LINE download. Pay by Card or PayPal!
 

Lyrics of a song Elán - Amnestia na neveru - Intro + Sólo

>> LYRICS >> LYRICS e >> Elán >>

Intro:
e---------------------------------------------------------------/
H--0310---1-----------------------------------------------------/
G--------2------------------------------------------------------/
D-------3-------------------------------------------------------/
A-0----0--------------------------------------------------------/
E---------------------------------------------------------------/



Sólo:
e----------------------------------------------------------------/
H----------------------------------------------------------------/
G-14,16,17,18,17,18,17,16,17,18,20,19,18,18,19,20,21,18,19,20,21-/
D----------------------------------------------------------------/
A----------------------------------------------------------------/
E----------------------------------------------------------------/

V poslední čtveřici tabů hrajte první tři rychle za sebou a poslední tab
můžete zavibrovat.

Karaoke songs of this artist from our production:

O láske audio, video ... od 65 CZK

Čaba neblázni audio, FullHD video ... od 75 CZK

Ulica audio, FullHD video ... od 80 CZK

Tuláci v podchodoch audio, FullHD video ... od 75 CZK

0,00 CZK
(0,00 EUR)

Our random tips:

Karaoke songs of this artist from our production:

Svátek zvířat audio, video ... od 65 CZK

Are You Lonesome Tonight audio, video ... od 65 CZK

Morava má audio, FullHD video ... od 80 CZK

Jestli to nebude láska audio, FullHD video ... od 70 CZK

TOPlist TOPlist
Přihlášení / registrace:
Přihlásit se přes Facebook
Login:
Heslo:
 
- nová registrace
- zapomenuté heslo

Payment Gateway for karaoke
Vytištěno ze serveru www.musicer.net