Lyrics started by: 1 |2 |3 |4 |5 |6 |7 |8 |9 |a |b |c |d |e |f |g |h |i |j |k |l |m |n |o |p |q |r |s |t |u |v |w |x |y |z
More then 1900 karaoke song in 29 filetypes. 1,1 TB for your own ON-LINE download. Pay by Card or PayPal!
 

Lyrics of a song Divokej Bill - + Medvěd 009 - parní stroj

>> LYRICS >> LYRICS d >> Divokej Bill >>
intro:
E|-------------- ----------| ----------------------------------------|
H|-------------- ----------| ----------------------------------------|
G|-------------- 3x ----------| ---7---7---9----------------------------|
D|--5555555334-- ---55555--| ---7---7---9----------------5555555334--|
A|--3333333112-- ---33333--| ---5---5---7-----03567533---3333333112--|
e|-------------- ----------| ----------------------------------------|

Něco mi říká...
D|------------
A|--3--1-2-3--
E|-----------

cele se to opakuje porad dokola.na solicku se pracuje:)

Karaoke songs of this artist from our production:

Váha muší audio, video ... od 65 CZK

Plakala audio, FullHD video ... od 75 CZK

Malování audio, video ... od 65 CZK

Čmelák audio, FullHD video ... od 75 CZK

0,00 CZK
(0,00 EUR)

Our random tips:

Karaoke songs of this artist from our production:

Žala naša Anička (EV) audio, FullHD video ... od 75 CZK

Milk and toast and honey audio, video ... od 65 CZK

Jako ptáci audio, video ... od 65 CZK

We Will Rock You audio, video ... od 65 CZK

TOPlist TOPlist
Přihlášení / registrace:
Přihlásit se přes Facebook
Login:
Heslo:
 
- nová registrace
- zapomenuté heslo

Payment Gateway for karaoke
Vytištěno ze serveru www.musicer.net