Lyrics started by: 1 |2 |3 |4 |5 |6 |7 |8 |9 |a |b |c |d |e |f |g |h |i |j |k |l |m |n |o |p |q |r |s |t |u |v |w |x |y |z
More then 1900 karaoke song in 29 filetypes. 1,1 TB for your own ON-LINE download. Pay by Card or PayPal!
 

Lyrics of a song Bob Marley - Concrate Jungle

>> LYRICS >> LYRICS b >> Bob Marley >>

Solo :

|------3-------------|--------------------|--------------------|
|--------------------|--5/7----7h8p7p5-7p5|7h8p7p5-----------7-|
|-3h4-------3h4-----6/7-------------------|---------7---7h9----|
|--------------------|--------------------|--------------------|
|--------------------|--------------------|--------------------|
|--------------------|--------------------|--------------------|

|--------------------|----------------------------|-------------
|7h8-7h8-7h8/10~---11b12-r11b12r11-12/17\12--11b12|-10----------
|--------------------|----------------------------|--12p9-12-12-
|--------------------|----------------------------|-------------
|--------------------|----------------------------|-------------
|--------------------|----------------------------|-------------

-----------------|12p10---12-12~--12b14r12--10-10-|----10-
-10h12p10---10-12|----12p10---------------12------|-12----
---------9h12----|--------------------------------|-------
-----------------|--------------------------------|-------
-----------------|--------------------------------|-------
-----------------|--------------------------------|-------

-12b14r12-10--/17-----------------17b19---17b19-17b19r17p15---|
--------------------15---17--15-----|----------------------17-|
-----------------16--------16-------|-------------------------|
------------------------------------|-------------------------|
------------------------------------|-------------------------|
------------------------------------|-------------------------|

|15---14-17p14--14-15-14h15p14-15p14h15p14-15~---14-15p14------|
|-17~---------15-------------------|---------------------15-17-|
|----------------------------------|---------------------------|
|----------------------------------|---------------------------|
|----------------------------------|---------------------------|
|----------------------------------|---------------------------|

|--------------------|--------------------|-----17-------------|
|17~---17b19--17p15--|15h17~---15-17-15-17b19------17b19-17b19-|
|------------------16|--------------------|--------------------|
|--------------------|--------------------|--------------------|
|--------------------|--------------------|--------------------|
|--------------------|--------------------|--------------------|

|-------------------17b19-r-17------15----|---------------
17b19----17b19p15--15--|----------------17~-|----------------
|--------------16----|--------------------|-----------------
|--------------------|--------------------|-----------------
|--------------------|--------------------|----------------
|--------------------|--------------------|---------------

Karaoke songs of this artist from our production:

No Woman No Cry audio, video ... od 65 CZK

Sun Is Shining audio, video ... od 65 CZK

0,00 CZK
(0,00 EUR)

Our random tips:

Karaoke songs of this artist from our production:

Vítr audio, video ... od 65 CZK

Zrcadlo audio, video ... od 65 CZK

Portrét neznámé audio, video ... od 65 CZK

Fůra slámy audio, FullHD video ... od 65 CZK

TOPlist TOPlist
Přihlášení / registrace:
Přihlásit se přes Facebook
Login:
Heslo:
 
- nová registrace
- zapomenuté heslo

Payment Gateway for karaoke
Vytištěno ze serveru www.musicer.net