Lyrics started by: 1 |2 |3 |4 |5 |6 |7 |8 |9 |a |b |c |d |e |f |g |h |i |j |k |l |m |n |o |p |q |r |s |t |u |v |w |x |y |z
More then 1900 karaoke song in 29 filetypes. 1,1 TB for your own ON-LINE download. Pay by Card or PayPal!
 

Lyrics of a song Aleš Brichta - Atentát na city - intro

>> LYRICS >> LYRICS a >> Aleš Brichta >>

e-----------------------------------------------------------
h----------4---------2-------4-------2--------------------
g---1-----------4---------------4----------1-----3--4-- 2X
D--------------------------------------------------------
A---------------------------------------------------------
E----------------------------------------------------------


e----------------------------------------------------------
h-9----9----7----4----2-------2--------9----11---12---
g----------------------------4--------1-------------------2X
D---------------------------------------------------------
A---------------------------------------------------------
E-------------------------------------------------------- 2426 --

Karaoke songs of this artist from our production:

Nechte vlajky vlát audio, video ... od 65 CZK

Dívka s perlami ve vlasech audio, FullHD video ... od 75 CZK

Kámoš dost fajn audio, video ... od 65 CZK

Sirael audio, video ... od 65 CZK

0,00 CZK
(0,00 EUR)

Our random tips:

Karaoke songs of this artist from our production:

Dál mi hrej mé flamengo audio, video ... od 65 CZK

Papoušek kakadu audio, video ... od 65 CZK

O šťastí audio, video ... od 65 CZK

Agáta audio, video ... od 65 CZK

TOPlist TOPlist
Přihlášení / registrace:
Přihlásit se přes Facebook
Login:
Heslo:
 
- nová registrace
- zapomenuté heslo

Payment Gateway for karaoke
Vytištěno ze serveru www.musicer.net