Lyrics started by: 1 |2 |3 |4 |5 |6 |7 |8 |9 |a |b |c |d |e |f |g |h |i |j |k |l |m |n |o |p |q |r |s |t |u |v |w |x |y |z
More then 1900 karaoke song in 29 filetypes. 1,1 TB for your own ON-LINE download. Pay by Card or PayPal!
 

Lyrics of a song Spandau Ballet - Through The Baricades

>> LYRICS >> LYRICS s >> Spandau Ballet >>
{ Intro }

e-------------|-------------|-------------|--------------5^2--------
B-----------3-|-------------|-----------3-|-----------3-------3-----
G--------4----|-----------0-|--------2----|--------2-------------0--
D-------------|--------4----|-----4-------|-----4-------------------
A-----5-------|-----2-------|--2----------|--2----------------------
E--3----------|--0----------|-------------|-------------------------


e-------------|--------------
B-----------3-|--------------
G--------0----|-----------0--
D-----2-------|--------2-----
A--3----------|-----2--------
E-------------|--0-----------


e----------8-------|----------8-------|----------8-------|--2--
B----8---8---8---8-|----8---8---8---8-|----8---8---8---8-|--3--
G------0-------0---|------0-------0---|------0-------0---|--2--
D------------------|------------------|------------------|--0--
A--8---------------|--7---------------|--6---------------|-----
E------------------|------------------|------------------|-----

{ Intro End }


Mother doesn't know where love has gone
She says it must be youth that keeps this feeling strong
I see it in her face that's turned to ice
And when she smiles she shows the lines of sacrifice
And now I know what they're saying as our sun begins to fade
And we made our love on wasteland and through the barricades


Mother.. ...gone...
e------------------|------------------|------------------|----------5^2------
B--------3-------3-|------------------|--------3-------3-|--------3-----3----
G------4---4---4---|--------0-------0-|------2---2---2---|------2---------0--
D------------------|------4---4---4---|----4-------4-----|----4--------------
A----5-------5-----|----2-------2-----|--2---------------|--2----------------
E--3---------------|--0---------------|------------------|-------------------

She says... ...strong
e------------------|------------------|--------3-------3-|--------3----------
B--------3-------3-|------------------|------1---1---1---|------1---1--------
G------0---0---0---|--------0-------0-|----2-------2-----|----0-------0---0--
D----2-------2-----|------2---2---2---|--3---------------|--------------2----
A--3---------------|----2-------2-----|------------------|--3----------------
E------------------|--0---------------|------------------|-------------------

I see... ...to ice...
e--------3---------|------------------|------------------|----------5^2------
B------3---3-------|------------------|--------3-------3-|--------3-----3----
G----0-------0---0-|--------0-------0-|------2---2---2---|------2---------0--
D--------------2---|------4---4---4---|----4-------4-----|----4--------------
A------------------|----2-------2-----|--2---------------|--2----------------
E--3---------------|--0---------------|------------------|-------------------

...and... ...sacrifice
e------------------|------------------|------------------|--------2-------2--
B--------3-------3-|------------------|--------3-------3-|------3---3---3----
G------0---0---0---|--------0-------0-|------0---0---0---|----2-------2------
D----2-------2-----|------2---2---2---|----2-------2-----|--0----------------
A--3---------------|----2-------2-----|--3---------------|-------------------
E------------------|--0---------------|------------------|-------------------

And now I... ...as our sun...
e--------2---------|--------0---------|--------0---------|--------3-------3--
B--3---3---------0-|------1---1-------|------3---3-------|------0-------0----
G----2---------2---|----0-------0---0-|----2-------2---2-|----0-------0------
D------------------|--------------2---|--0-----------4---|-------------------
A----------2-0-----|--3---------------|------------------|-------------------
E------------------|------------------|------------------|--3-------2--------

...and we made...
e--------3-------3-|------------3-----|--------0-------0-|----3-----3------
B------0---0-------|----------0-------|----------1-------|------3-----3----
G----0-------0-----|--------0----2^4^0|------0-----0-----|--------0-----0--
D--------------2---|------2-----------|----2---------2---|-----------------
A------------------|--0^2-------------|--3---------------|--0--------------
E--0---------------|------------------|------------------|-----------------

...through the barricades
e--3-----3-----3-----|--------2-3-2-----||-----------------------------------
B----3-----3-----3---|------3-------3---||--------3-------3-------3-------3--
G------0-----0-----0-|----2-----------2-||------4---4---4---4---4---4---4----
D--------------------|--0---------------||-----------------------------------
A--------------------|------------------||----5-------5-------5-------5------
E--------------------|------------------||--3--------------------------------


{ Now play the 2nd part of the lyrics just like you did before }


Father made my history
He fought for what he thought would set us somehow free
They taught me what to say in school
I learned it half by heart but now that's torn in two
And now I know what they're saying in the music of the parade
And we made our love on wasteland and through the barricades


{ When you reach the double vertical mark, switch to the part below: }


e--------3-------1---|------3-----1---|--------------------|-----------------
B------1---1---1---1-|----1-----2---1-|--------3-------1---|------3-----1----
G----2-------2-------|--2-----1-------|------0---0---0---0-|----0-----2---0--
D--3-----------------|----------------|----2-------2-------|--2-----0--------
A--------------------|----------------|--3-----------------|-----------------
E--------------------|----------------|--------------------|-----------------


e--7-----7-------7---|------7-8-------|--A-----A-------A---|------A-8-----8--
B------8---8---8---8-|----8-----8---8-|----8-----8---8---8-|----8-----8------
G----7-------7-------|--7---------7---|------7-----7-------|--7---------7----
D--0-----------------|--------0-------|--0-----------------|--------0--------
A--------------------|----------------|--------------------|-----------------
E--------------------|----------------|--------------------|-----------------


Born on different sides of life
We fear the same and feel all of this strife
So come to me when I'm asleep ( sleep )
We'll cross the lines and dance upon the streets
And now I know what they're saying as the drums begin to fade
And we made our love on wasteland and through the barricades


Born... ...life
e------------------|------------------|------------------|----------5^2------
B--------3---------|------------------|--------3-------3-|--------3-----3----
G------4---4---4---|--------0---------|------2---2---2---|------2---------0--
D------------------|------4---4---4---|----4-------4-----|----4--------------
A----5-------5---5-|----2-------2---0-|--2---------------|--2----------------
E--3---------------|--0---------------|------------------|-------------------

We feel... ...strife
e------------------|------------------|--------3-------3-|--------3-------3--
B--------3-------3-|------------------|------1---1---1---|--1---1---1---1----
G------0---0---0---|--------0-------0-|----2-------2-----|----2-------2------
D----2-------2-----|------2---2---2---|--3---------------|-------------------
A--3---------------|----2-------2-----|------------------|-------------------
E------------------|--0---------------|------------------|-------------------

So... ...asleep
e--------3-------3-|------------------|----------------------------5^2------
B------3---3---3---|------------------|----------3-------3-------3-----3----
G----0-------0-----|----------0-------|--------2---2---2---2---2---------2--
D------------------|--0^2---4---4---4-|------4-------4-------4--------------
A--2---------------|------2-------2---|--0^2--------------------------------
E------------------|------------------|-------------------------------------

We'll... ...streets
e------------------|------------------|------------------|--------2-------2--
B--------3-------3-|------------------|--------3-------3-|------3---3---3----
G------0---0---0---|--------0-------0-|------0---0---0---|----2-------2------
D----2-------2-----|------2---2---2---|----2-------2-----|--0----------------
A--3---------------|----2-------2-----|--3---------------|-------------------
E------------------|--0---------------|------------------|-------------------


And now I... ...as the drums...
e--------2-2-2-----|--------0---------|--------0---------|--------3-------3--
B--3---3---3-3---0-|------1---1-------|------3---3-------|------0-------0----
G----2-----2-2-2---|----0-------0---0-|----2-------2---2-|----0-------0------
D------------------|--------------2---|--0-----------4---|-------------------
A----------2-0-----|--3---------------|------------------|-------------------
E------------------|------------------|------------------|--3-------2--------

...and we made...
e--------3-------3-|------------3-----|--------0-------0-|----3-----3------
B------0---0-------|----------0-------|----------1-------|------3-----3----
G----0-------0-----|--------0----2^4^0|------0-----0-----|--------0-----0--
D--------------2---|------2-----------|----2---------2---|-----------------
A------------------|--0^2-------------|--3---------------|--0--------------
E--0---------------|------------------|------------------|-----------------

...through the barricades
e--3-----3-----3-----|--------2-3-2------
B----3-----3-----3---|------3-------3----
G------0-----0-----0-|----2-----------2--
D--------------------|--0----------------
A--------------------|-------------------
E--------------------|------------------- 2087

Karaoke songs from our production:

Tata audio, video ... 65 CZK

Pánubohudooken(Za co Pane B... audio, video ... 65 CZK

Gejzír audio, video ... 65 CZK

Sen můj a Lízin audio, video ... 65 CZK

0,00 CZK
(0,00 EUR)

Our random tips:

Karaoke songs of this artist from our production:

Slavonická (EV) audio, video ... 70 CZK

Panenka audio, video ... 65 CZK

Inzerát audio, video ... 70 CZK

Talisman lásky audio, video ... 65 CZK

TOPlist TOPlist
Přihlášení / registrace:
Přihlásit se přes Facebook
Login:
Heslo:
 
- nová registrace
- zapomenuté heslo

Payment Gateway for karaoke
Vytištěno ze serveru www.musicer.net