Lyrics started by: 1 |2 |3 |4 |5 |6 |7 |8 |9 |a |b |c |d |e |f |g |h |i |j |k |l |m |n |o |p |q |r |s |t |u |v |w |x |y |z
More then 1900 karaoke song in 29 filetypes. 1,1 TB for your own ON-LINE download. Pay by Card or PayPal!
 

Lyrics of a song Sex Pistols - God Save The Queen With Solo

1f91

INTRO

E----------------------------------------------
B----------------------------------------------
G----------------------------------------------
D-13/14-14-14-14--14-14---13/14-14-14-14--14-14
A-11/12-12-12-12--12-12---11/12-12-12-12--12-12
E----------------------------------------------

E------------------------------------------------
B------------------------------------------------
G------------------------------------------------
D-13/14-14-14--13/14-14-14--13/14-14-14-14--14-14
A-11/12-12-12--13/14-14-14--11/12-12-12-12--12-12
E------------------------------------------------


E------------------- ----------------------------------
B------------------- ----------------------------------
G------------------- ----------------------------------
D-------7--6—-7----- ----------------------------------
A-7-----5--4--5----- x3 -6/7-7-7-7-7--7-----6/7-7-7-7-7--7
E-5----------------- -4/5-5-5-5-5--5-----4/5-5-5-5-5--5



VERSE

E---------------------------- ----------------------------------
B---------------------------- ----------------------------------
G---------------------------- ----------------------------------
D-------------------7--6--7-- ----------------------------------
A-7-7-7-7-7-7-7-7---5--4--5—- x3 -6/7-7-7-7-7--7-----6/7-7-7-7-7--7
E-5-5-5-5-5-5-5-5------------ -4/5-5-5-5-5--5-----4/5-5-5-5-5--5
(---Palm mute---)


CHORUS

E----------------------------------------------------------------
B----------------------------------------------------------------
G----------------------------------------------------------------
D-9--9-------8/9-9-9-9--8/9-9-9-9---9--9-----—-8/9-9-9--9-9-9-9--
A-7--7--9-9--6/7-7-7-7--6/7-7-7-7---7--7--9-9—-6/7-7-7--7-7-7-7--
E-------7-7-------------------------------7-7--------------------


After CHORUS

E------------------- --------------------------------------I
B------------------- --------------------------------------I
G------------------- --------------------------------------I
D-------7--6--7----- ------------9-9-9-9-9-----------------I
A-7-----5--4--5----- x3 -7-7-7-7-7--7-7-7-7-7--7-7-7-7-7------I
E-5----------------- -5-5-5-5-5-------------5-5-5-5-5------I







SOLO

E-------------------------------------------------------------------
B-------------------------------------------------------------------
G-9-9---9-9-9-9-9-7-7---7-7-7-7-7-9-9---9-9-9-9-9-7-7---7-7-7-7-7---
D-----9---------------7---------------9---------------7-------------
A-------------------------------------------------------------------
E-------------------------------------------------------------------


E-------------------------------------------------
B-------------------------------------------------
G-9-9---9-9-9-9-9-7-7---7-7-7-7-7-9-9---9-9-9-9-9-
D-----9---------------7---------------9-----------
A-------------------------------------------------
E-------------------------------------------------


E-------------------------------------------
B-------------------------------------------
G-12-12-12-12-12-12-12-12-12-12-12-12-12-12-
D-------------------------------------------
A-------------------------------------------
E-------------------------------------------


OUTRO

E--------------------------------------------------------------------------------------------------
B--------------------------------------------------------------------------------------------------
G--------------------------------------------------------------------------------------------------
D-7-7-7--7-7-7-6-6-6-4-4-4--7-7-7--7-7-7-6-6-6-4-4-4--7-7-7-—7-7-7-6-6-6-4-4-4-2-2-4/5-5-4/5-5-5-5-
A-5-5-5--5-5-5-4-4-4-2-2-2--5-5-5--5-5-5-4-4-4-2-2-2--5-5-5—-5-5-5-4-4-4-2-2-2-0-0-2/3-3-2/3-3-3-3- X3
E---------------------------------------------------------------------------------------------

E----------------------------------
B----------------------------------
G----------------------------------
D-7-7--6-6--7-7--6-6--7-7-6-6-4-2--
A-5-5—-4-4--5-5--4-4--5-5-4-4-2-0--

ORDER

Intro
Verse
Verse
Chorus
After chorus
Verse
Verse
Chorus
After chorus
Solo
Outro

Karaoke songs of this artist from our production:

Karaoke song God Save The Queen - Sex Pistols, Published: 2007-01-05 13:09:17 God Save The Queen MIDI, MP3, MPG, MP4 ... 57,00 CZK

0,00 CZK
(0,00 EUR)

Best karaoke tips:

Karaoke song Everlasting love - Sandra, Published: 2008-02-25 09:09:22 Everlasting love MIDI, MP3, MPG, MP4 ... 57,00 CZK

Karaoke song Neverending story - Limahl, Published: 2008-02-25 09:10:29 Neverending story MIDI, MP3, MPG, MP4 ... 57,00 CZK

Karaoke song I´m The One And Only - Chesney Hawkes, Published: 2008-04-14 14:58:24 I´m The One And Only MIDI, MP3, MPG, MP4 ... 57,00 CZK

Karaoke song Nothing´s Gonna Change My Love For You - Glen Medeiros, Published: 2008-05-10 12:18:19 Nothing´s Gonna Change My L... MIDI, MP3, MPG, MP4 ... 57,00 CZK

Karaoke song Teardrops - Shakin´Stevens, Published: 2008-07-01 15:04:26 Teardrops MIDI, MP3, MPG, MP4 ... 57,00 CZK

Karaoke song United - Judas Priest, Published: 2008-07-16 10:43:00 United MIDI, MP3, MPG, MP4 ... 57,00 CZK

Karaoke song Painter Man - Boney M, Published: 2008-11-03 23:15:04 Painter Man MIDI, MP3, MPG, MP4 ... 57,00 CZK

Karaoke song Turbo Lover - Judas Priest, Published: 2009-01-29 14:47:20 Turbo Lover MIDI, MP3, MPG, MP4 ... 57,00 CZK

Karaoke song Lick It Up - Kiss, Published: 2009-02-03 21:21:58 Lick It Up MIDI, MP3, MPG, MP4 ... 57,00 CZK

TOPlist TOPlist
Vytištěno ze serveru www.musicer.net