Lyrics started by: 1 |2 |3 |4 |5 |6 |7 |8 |9 |a |b |c |d |e |f |g |h |i |j |k |l |m |n |o |p |q |r |s |t |u |v |w |x |y |z
More then 1900 karaoke song in 29 filetypes. 1,1 TB for your own ON-LINE download. Pay by Card or PayPal!
 

Lyrics of a song Sex Pistols - Come On Everybody

>> LYRICS >> LYRICS s >> Sex Pistols >>
Alba s touto skladbou: Express, Down With The King,

293e
INTRO:bass
e|-----------------------------------------------------------------------|
B|-----------------------------------------------------------------------|
G|-----------------------------------------------------------------------|
D|-----------------------------------------------------------------------|
A|-------2---2---2-------------------------------------------------------|
E|---1-------------------------------------------------------------------|

VERSE:PLAY 2X
e|-----------------------------------------------------------------------|
B|-----------------------------------------------------------------------|
G|-----------------------------------------------------------------------|
D|---8---------------8---------------------------------------------------|
A|---6---6---8---6---6---------------------------------------------------|
E|-------4---6---4-------------------------------------------------------|

CHORUS:PLAY 2X
e|-----------------------------------------------------------------------|
B|-----------------------------------------------------------------------|
G|-----------------------------------------------------------------------|
D|---7\8---8---8-----------8---------------------------------------------|
A|---5\6---6---6---6---8---6---------------------------------------------|
E|-----------------4---6-------------------------------------------------|

Official video:

Karaoke songs of this artist from our production:

God Save The Queen audio, video ... 65 CZK

0,00 CZK
(0,00 EUR)

Our random tips:

Karaoke songs of this artist from our production:

Kapelo polku hrej (EV) audio, video ... 73 CZK

Láká mě, láká audio, video ... 65 CZK

Bez veľkej slávy audio, video ... 65 CZK

Narcotic audio, video ... 65 CZK

TOPlist TOPlist
Přihlášení / registrace:
Přihlásit se přes Facebook
Login:
Heslo:
 
- nová registrace
- zapomenuté heslo

Payment Gateway for karaoke
Vytištěno ze serveru www.musicer.net