Lyrics started by: 1 |2 |3 |4 |5 |6 |7 |8 |9 |a |b |c |d |e |f |g |h |i |j |k |l |m |n |o |p |q |r |s |t |u |v |w |x |y |z
More then 1900 karaoke song in 29 filetypes. 1,1 TB for your own ON-LINE download. Pay by Card or PayPal!
 

Lyrics of a song Sex Pistols - Anarchy In The Uk-(od Tomase)


SEX PISTOLS-ANARCHY IN THE UK

INTRO

e------------------------------------------------------------|
b------------------------------------------------------------|
g--12-12-12-12-12-12-12-12-12-10-10-10-10-10-10-10-10-10-9-7-|
d--12-12-12-12-12-12-12-12-12-10-10-10-10-10-10-10-10-10-9-7-|
a--10-10-10-10-10-10-10-10-10-8--8--8--8--8--8--8--8--8--7-5-|
e------------------------------------------------------------|

e------------------------------------------|
b------------------------------------------|
g--5-5-5-5-5-5-5-5-5-5-5-5-5-5-5-5-5-5-5-5-|
d--5-5-5-5-5-5-5-5-5-5-5-5-5-5-5-5-5-5-5-5-|
a--3-3-3-0-3-3-3-0-3-3-3-0-3-3-3-0-3-3-3-0-|

sloka

e-------------------------------|
b-------------------------------|
g--5-5-5-5-5-5-5-5-5-5-5-5-10-9-|X4
d--5-5-5-5-5-5-5-5-5-5-5-5-10-9-|
a--3-3-3-0-3-3-3-0-3-3-3-0-8--7-|
e-------------------------------|
I AM A ANTICHRIST
AND I AM A ANARCHIST
DONT KNOW WHAT I WANT BUT I KNOW HOW TO GET IT
I 2c71 WANNA DESTROY PASSERS-BY CAUSE

sbor

e----------------------------------------------------|
b----------------------------------------------------|
g-12-12-12-12-12-12-12-12-12-12-12-12-12-12-12-12-12-|
d-12-12-12-12-12-12-12-12-12-12-12-12-12-12-12-12-12-|
a-10-10-10-10-10-10-10-10-10-10-10-10-10-10-10-10-10-|
e----------------------------------------------------|
I I WANNA BE
e--------------------------------------------------------|
b--------------------------------------------------------|
g-10-10-10-10-10-10-10-10-10-10-10-10-10-10-10-10-10-9-7-|
d-10-10-10-10-10-10-10-10-10-10-10-10-10-10-10-10-10-9-7-|
a-8--8--8--8--8--8--8--8--8--8--8--8--8--8--8--8--8--7-5-|
e--------------------------------------------------------|
ANARCHY!!!!!!!!!!!!!!!!!!!!!!!!!!!!!!!!!!!!!!!!!
e------------------------------|
b------------------------------|
g-5-5-5-5-5-5-5-5-5-5-5-5-10-9-|
d-5-5-5-5-5-5-5-5-5-5-5-5-10-9-|
a-3-3-3-0-3-3-3-0-3-3-3-0-8--7-|
e------------------------------|
NO DOGS BODY

VERSE
stejne jak predtim

ANARCHY FOR THE UK
IS COMING SOMETIME MAYBE
ILL GIVE THE WRONG TIME,STOP THE TRAFFIC LANE
YOUR FUTURE DREAM A SHOPPING SCHEME CAUSE

stejne jak predtim

I I WANNA BE ANAR-CHY
IN THE CITY!

SOLO


sloka
NO GUTIAR JUST FEEDBACK BUT DRUMS AND BASS CONTINUE
IS THIS THE M P L A
OR IS THIS THE U D A
OR IS THIS THE I R A
I THOUGHT IT WAS THE UK

Karaoke songs of this artist from our production:

God Save The Queen MIDI, MP3, MPG, MP4 ... 65,00 CZK

0,00 CZK
(0,00 EUR)

Our random tips:

Karaoke song Sorry seems to hardest - Elton John feat. Blue, Published: 2007-01-05 13:09:17 Sorry seems to hardest MIDI, MP3, MPG, MP4 ... 65,00 CZK

Karaoke song All Night Long - Rainbow, Published: 2007-09-06 21:38:32 All Night Long MP3, MPG, MP4 ... 65,00 CZK

Karaoke song Lásko má - Karel Gott, Published: 2007-01-05 13:09:17 Lásko má MIDI, MP3, MPG, MP4 ... 65,00 CZK

Karaoke song Kaťuša - Reflexy, Published: 2012-02-10 09:35:49 Kaťuša MIDI, MP3, MPG, MP4 ... 65,00 CZK

TOPlist TOPlist
Vytištěno ze serveru www.musicer.net