Lyrics started by: 1 |2 |3 |4 |5 |6 |7 |8 |9 |a |b |c |d |e |f |g |h |i |j |k |l |m |n |o |p |q |r |s |t |u |v |w |x |y |z
More then 1900 karaoke song in 29 filetypes. 1,1 TB for your own ON-LINE download. Pay by Card or PayPal!
 

Lyrics of a song Kabát - Brouk pytlík - intro

>> LYRICS >> LYRICS k >> Kabát >>
275d

E--------------------------------------------------------------
H--------------------------------------------------------------
G--------------------------------------------------------------
D--------0--------------4-----------------6--7--6--------------
A-----------2~----4--5-----5-----------------------------------
E--0--2-----------------------0-------0------------------------

E--------------------------------------------------------------
H--------------------------------------------------------------
G--------------------------------------------------------------
D--------0--------------4--------------------------------------
A-----------2~----4--5-----5-----------------------------------
E--0--2-----------------------0-------0--3/2--0----------------

řek bych, že tohle je dobře, ty kokoti, co se to pokoušeli odposlouchat
předtim byli buď úplně hluchý nebo to od někoho jednoduše opsali, aniž
by si to zkusili zahrát. Takže ať žije KABÁT!!!


Karaoke songs of this artist from our production:

Opilci v dějinách audio, video ... 65 CZK

Všechno bude jako dřív audio, video ... 65 CZK

V pekle sudy válej audio, video ... 65 CZK

Stará Lou audio, video ... 65 CZK

0,00 CZK
(0,00 EUR)

Our random tips:

Karaoke songs of this artist from our production:

Hasička audio, video ... 70 CZK

Pochod korzárů audio, video ... 80 CZK

Smoke On The Water audio, video ... 65 CZK

Words audio, video ... 65 CZK

TOPlist TOPlist
Přihlášení / registrace:
Přihlásit se přes Facebook
Login:
Heslo:
 
- nová registrace
- zapomenuté heslo

Payment Gateway for karaoke
Vytištěno ze serveru www.musicer.net