Lyrics started by: 1 |2 |3 |4 |5 |6 |7 |8 |9 |a |b |c |d |e |f |g |h |i |j |k |l |m |n |o |p |q |r |s |t |u |v |w |x |y |z
More then 1900 karaoke song in 29 filetypes. 1,1 TB for your own ON-LINE download. Pay by Card or PayPal!
 

Lyrics of a song Elán - CABA-Megakoncert-BASS

>> LYRICS >> LYRICS e >> Elán >>
intro s bicími
g------------
d------------
a------------
e-0-0-00-0-0-00

Sloka
g--------------------------------------------------
d--------3-----------3-----------3------------35303
a---------324---------324-1-1-11--324--------3-----
e-3-3-33------1-1-11------------------3-3-33-------

ref
g????
d????
a????
e????

konec refren..CABA!!
g--------------
d-------55-9757
a--55-77-------
e55------------

Karaoke songs of this artist from our production:

Osmy svetadiel audio, video ... 65 CZK

Zalúbený audio, video ... 75 CZK

Neviem byť sám audio, video ... 70 CZK

Kde si audio, video ... 75 CZK

0,00 CZK
(0,00 EUR)

Our random tips:

Karaoke songs of this artist from our production:

Škoda lásky audio, video ... 65 CZK

Vánoční strom audio, video ... 80 CZK

Šalalalali audio, video ... 70 CZK

Ztrácím audio, video ... 70 CZK

TOPlist TOPlist
Přihlášení / registrace:
Přihlásit se přes Facebook
Login:
Heslo:
 
- nová registrace
- zapomenuté heslo

Payment Gateway for karaoke
Vytištěno ze serveru www.musicer.net